MUZBANK


МУЗЫКАЛЬНО-ИНФОРМАЦИОННЫЙ БАНК





KKotiteollisuus • Kuningas Mammona (аккорды и текст - chords & lyrics)


441

Print

Видео «Kuningas Mammona (Kotiteollisuus)»

Видео клипы к песне подбираются автоматически сайтом youtube. Возможны некоторые несоответствия клипов песне.

↑ Спрятать рекламу ↑





 


KOTITEOLLISUUS: KUNINGAS MAMMONA

Vire: C#-G#-C#-F#-A#-D#

  ************************************************************
  *  tabbed by Plikk                                         *
  
  

x = dempattuna


Alkuriffi
|-----------------------------------------------------------|
|-----------------------------------------------------------|
|-----------------------------------------------------------|
|--0--0-------0--------0------0------0------0------0--3--5--|
|--0--0-------0--------0------0------0------0------0--3--5--|
|--0--0--10-9-0--13-12-0--8-7-0--6-5-0--4-3-0--2-1-0--3--5--|


|-------------------------------------------------------|
|-------------------------------------------------------|
|-------------------------------------------------------|
|--0-0-7-6-5--0-4--3-2---1--0-0-7-6-5--0-4--3-2--0-1----|
|--0-0-7-6-5--0-4--3-2---1--0-0-7-6-5--0-4--3-2--0-1-1--|
|--0-0-7-6-5--0-4--3-2---1--0-0-7-6-5--0-4--3-2--0-1----|


...Korkean hopeatornin...
|-------------------------------------------------------|
|-------------------------------------------------------|
|-------------------------------------------------------|
|--0-0-7-6-5--0-4--3-2---1--0-0-7-6-5--0-4--3-2--0-1----|
|--0-0-7-6-5--0-4--3-2---1--0-0-7-6-5--0-4--3-2--0-1-1--|
|--0-0-7-6-5--0-4--3-2---1--0-0-7-6-5--0-4--3-2--0-1----|
   x x                      x x 


... 

Тональность:

Это должно быть в ТОП-листе! - Топ-лист композиций



Назад
Рекомендуем посмотреть другие песни исполнителя «Kotiteollisuus»:

  • Комменты Fb ()
  • Комменты ВК



Добавить в Избранное Браузера
Сохранить здесь Очистить


x

0


+
-

+
-

-

Авторизация





Зарегистрироваться

M

Дата и время

  • 12:59:49
     

Социальные ссылки


Наши приложения

  • Muzbank App Play Market
  • Muzbank Amazon App