MUZBANK


МУЗЫКАЛЬНО-ИНФОРМАЦИОННЫЙ БАНК





KKotiteollisuus • Pieni (аккорды и текст - chords & lyrics)


406

Print

Видео «Pieni (Kotiteollisuus)»

Видео клипы к песне подбираются автоматически сайтом youtube. Возможны некоторые несоответствия клипов песне.

↑ Спрятать рекламу ↑





 


KOTITEOLLISUUS: PIENI

Vire: C#-G#-C#-F#-A#-D#

  Tabbed by plikk


Alkuriffi
|-----------------------------|
|-----------------------------|
|-----------------------------|
|--5-5-5-6------4-4-4-6-------|
|--5-5-5----5p6-4-4-4----5p6--|
|--5-5-5--------4-4-4---------|


...Taivas!...
|-----------------------------------|
|-----------------------------------|
|-----------------------------------|
|--8--8--8--8--8-8-7--7--7--7--7-7--|
|--5--5--5--5--5-5-4--4--4--4--4-4--|
|--5--5--5--5--5-5-4--4--4--4--4-4--|


...Luuletko  

Тональность:

Это должно быть в ТОП-листе! - Топ-лист композиций



Назад
Рекомендуем посмотреть другие песни исполнителя «Kotiteollisuus»:

  • Комменты Fb ()
  • Комменты ВК



Добавить в Избранное Браузера
Сохранить здесь Очистить


x

0


+
-

+
-

-

Авторизация





Зарегистрироваться

M

Дата и время

  • 22:15:54
     

Социальные ссылки


Наши приложения

  • Muzbank App Play Market
  • Muzbank Amazon App