MUZBANK


МУЗЫКАЛЬНО-ИНФОРМАЦИОННЫЙ БАНК





KKotiteollisuus • Satu Peikosta (аккорды и текст - chords & lyrics)


413

Print

Видео «Satu Peikosta (Kotiteollisuus)»

Видео клипы к песне подбираются автоматически сайтом youtube. Возможны некоторые несоответствия клипов песне.

↑ Спрятать рекламу ↑





 


KOTITEOLLISUUS: SATU PEIKOISTA

Vire: C#-G#-C#-F#-A#-D#

  Tabbed by plikk

x = dempattuna

Alkuriffi
|-------------------------------------------------------------------------|
|-------------------------------------------------------------------------|
|-------------------------------------------------------------------------|
|--0-7-12-13-12~~~7-8--8-8-8-8-10-10-10--0-7-12-13-12~~~7-8--8-8-8-3-2-1--|
|--0-7-12-13-12~~~7-8--8-8-8-8-10-10-10--0-7-12-13-12~~~7-8--8-8-8-3-2-1--|
|--0-7-12-13-12~~~7-8--8-8-8-8-10-10-10--0-7-12-13-12~~~7-8--8-8-8-3-2-1--|


...Toisiinsa kietoutuneina...
|-------------------------------------|---------------------------------|
|-------------------------------------|---------------------------------|
|-------------------------------------|---------------------------------|
|--0-0-0-0-0-0-0-8--8-8-8-8-10-10-10--|--5-5-5-5-5-5-5-5-5-5-5-5-3-2-1--|
|--0-0-0-0-0-0-0-8--8-8-8-8-10-10-10--|--5-5-5-5-5-5-5-5-5-5-5-5-3-2-1--|
|--0-0-0-0-0-0-0-8--8-8-8-8-10-10-10--|--5-5-5-5-5-5-5-5-5-5-5-5-3-2-1--|
   x x x x x x x    x x x x x  x  x      x x x x x x x x x x x x


... 

Тональность:

Это должно быть в ТОП-листе! - Топ-лист композиций



Назад
Рекомендуем посмотреть другие песни исполнителя «Kotiteollisuus»:

  • Комменты Fb ()
  • Комменты ВК



Добавить в Избранное Браузера
Сохранить здесь Очистить


x

0


+
-

+
-

-

Авторизация





Зарегистрироваться

M

Дата и время

  • 03:13:11
     

Социальные ссылки


Наши приложения

  • Muzbank App Play Market
  • Muzbank Amazon App