MUZBANK


МУЗЫКАЛЬНО-ИНФОРМАЦИОННЫЙ БАНК





KKotiteollisuus • Veri Valuu Maahan (аккорды и текст - chords & lyrics)


399

Print

Видео «Veri Valuu Maahan (Kotiteollisuus)»

Видео клипы к песне подбираются автоматически сайтом youtube. Возможны некоторые несоответствия клипов песне.

↑ Спрятать рекламу ↑





 


KOTITEOLLISUUS: VERI VALUU MAAHAN

Vire: C#-G#-C#-F#-A#-D#

  ***********************************************************
  *  tabbed by plikk                                        *
   
  

x = dempattuna


Alkuriffi
|----------------------------------------------------------|
|----------------------------------------------------------|
|----------------------------------------------------------|
|--0-0-0--0-0--0-0-0-------0-0-0--0------------------------|
|--0-0-0--0-0--0-0-0-------0-0-0--0------------------------|
|--0-0-0--0-0--0-0-0-8-0-8-0-0-0--0-8-8-8-8-7-7-7-7-1-1-1--|


|----------------------------------------------------------|
|----------------------------------------------------------|
|----------------------------------------------------------|
|--0-0-0--0-0--0-0-0-8-0-8-0-0-0--0-8-8-8-8-7-7-7-7-1-1-1--|
|--0-0-0--0-0--0-0-0-8-0-8-0-0-0--0-8-8-8-8-7-7-7-7-1-1-1--|
|--0-0-0--0-0--0-0-0-8-0-8-0-0-0--0-8-8-8-8-7-7-7-7-1-1-1--|


...Kaatopaikat, hautuumaat...
|--------------------------------|
|--------------------------------|
|--------------------------------|
|--0-0-0-0-0--0-0--0----0-0-0-0--|
|--0-0-0-0-0--0-0--0----0-0-0-0--|
|--0-0-0-0-0--0-0--0-1--0-0-0-0--|
                        x x x x


... 

Тональность:

Это должно быть в ТОП-листе! - Топ-лист композиций



Назад
Рекомендуем посмотреть другие песни исполнителя «Kotiteollisuus»:

  • Комменты Fb ()
  • Комменты ВК



Добавить в Избранное Браузера
Сохранить здесь Очистить


x

0


+
-

+
-

-

Авторизация





Зарегистрироваться

M

Дата и время

  • 10:10:55
     

Социальные ссылки


Наши приложения

  • Muzbank App Play Market
  • Muzbank Amazon App