MUZBANK


МУЗЫКАЛЬНО-ИНФОРМАЦИОННЫЙ БАНК





KKotiteollisuus • Viimeinen Lause (аккорды и текст - chords & lyrics)


364

Print

Видео «Viimeinen Lause (Kotiteollisuus)»

Видео клипы к песне подбираются автоматически сайтом youtube. Возможны некоторые несоответствия клипов песне.

↑ Спрятать рекламу ↑





 


KOTITEOLLISUUS: VIIMEINEN LAUSE

Vire: C#-G#-C#-F#-A#-D#

  Tabbed by plikk  
  ****************************************************************************

x = dempattuna


Alkuriffi                  1.      2.
|-------------------------|-------|------|
|-------------------------|-------|------|
|-------------------------|-------|------|
|--0-3-2-0-3-0-2-3--0-2-3-|-0-2-3-|-0----|
|--0-3-2-0-3-0-2-3--0-2-3-|-0-2-3-|-0----|
|--0-3-2-0-3-0-2-3--0-2-3-|-0-2-3-|-0-2b-|

|-------------------------|
|-------------------------|
|-------------------------|
|--0-3--0-2--0-3--0-------|
|--0-3--0-2--0-3--0-------|
|--0-3--0-2--0-3--0-2-2b--|


... 

Тональность:

Это должно быть в ТОП-листе! - Топ-лист композиций



Назад
Рекомендуем посмотреть другие песни исполнителя «Kotiteollisuus»:

  • Комменты Fb ()
  • Комменты ВК



Добавить в Избранное Браузера
Сохранить здесь Очистить


x

0


+
-

+
-

-

Авторизация





Зарегистрироваться

M

Дата и время

  • 15:44:06
     

Социальные ссылки


Наши приложения

  • Muzbank App Play Market
  • Muzbank Amazon App