MUZBANK


МУЗЫКАЛЬНО-ИНФОРМАЦИОННЫЙ БАНК





KKotiteollisuus • Vuonna Yksi Ja Kaksi (аккорды и текст - chords & lyrics)


379

Print

Видео «Vuonna Yksi Ja Kaksi (Kotiteollisuus)»

Видео клипы к песне подбираются автоматически сайтом youtube. Возможны некоторые несоответствия клипов песне.

↑ Спрятать рекламу ↑





 


KOTITEOLLISUUS: VUONNA YKSI JA KAKSI

Vire: C#-G#-C#-F#-A#-D#

  Tabbed by plikk
 ****************************************************************************


Intro
|-------------------------------------------------------------------|
|-------------------------------------------------------------------|
|-------------------------------------------------------------------|
|--5-3-3-3-3-3-3-3-6-3-3-3-3-3-3-3-5-3-3-3-3-3-3-3-5-0-3-5-0-3-5-0--|
|-------------------------------------------------------------------|
|-------------------------------------------------------------------|


|-------------------------------------------------------------------|
|-------------------------------------------------------------------|
|-------------------------------------------------------------------|
|--5-3-3-3-3-3-3-3-6-3-3-3-3-3-3-3-5-3-3-3-3-3-3-3-5-0-3-5-0-3-5-0--|
|--5-3-3-3-3-3-3-3-6-3-3-3-3-3-3-3-5-3-3-3-3-3-3-3-5-0-3-5-0-3-5-0--|
|--5-3-3-3-3-3-3-3-6-3-3-3-3-3-3-3-5-3-3-3-3-3-3-3-5-0-3-5-0-3-5-0--|



...Miehen perse  

Тональность:

Это должно быть в ТОП-листе! - Топ-лист композиций



Назад
Рекомендуем посмотреть другие песни исполнителя «Kotiteollisuus»:

  • Комменты Fb ()
  • Комменты ВК



Добавить в Избранное Браузера
Сохранить здесь Очистить


x

0


+
-

+
-

-

Авторизация





Зарегистрироваться

M

Дата и время

  • 11:31:53
     

Социальные ссылки


Наши приложения

  • Muzbank App Play Market
  • Muzbank Amazon App