MUZBANK


МУЗЫКАЛЬНО-ИНФОРМАЦИОННЫЙ БАНК





KKreator • People Of The Lie (аккорды и текст - chords & lyrics)


528

Print

Видео «People Of The Lie (Kreator)»

Видео клипы к песне подбираются автоматически сайтом youtube. Возможны некоторые несоответствия клипов песне.

↑ Спрятать рекламу ↑





People Of The Lie - Kreator |
----------------------------
 
[BASS TAB:] by Big M

 
Intro
G|-----------------|---|-----------------|------------------|--------------------|---|
D|-----------------|---|-----------------|------------------|--------------------|---|
A|-3-2-------------|---|-2-2-2-3---------|---------5-4------|--------------------|---|
E|-----3-0---------|---|-----------------|-------------0000-|-6-5-0000-0---------|---|
 
G|-----------------|------------------|-----------------|---|
D|-----------------|------------------|-----------------|---|
A|-2-2-2-3---------|---------5-4------|-----------------|---|
E|-----------------|-------------0000-|-0---------------|---|
 
Verse
G|-----------------|-----------------|-------------------|-----------------|
D|-----------------|-----------------|-------------------|-----------------|
A|-----------------|---------1/2-----|-------------------|-----------------|
E|-0-0-0-1-0-0-0-0-|-0-0-0-0-----0-1-|-(1)-0-0-0-0-0-0-0-|-0-0-0-0-0-0-0-0-|
 
Chorus
G|-----------------|-----------------|-----------------|------------------|
D|-----------------|-----------------|-----------------|------------------|
A|-----------------|-----------------|-2---------------|------------------|
E|-0---------------|-3---------------|-----------------|-2-------1--------|
 
Fig.1
G|-----------------|-----------------|
D|-----------------|-----------------|
A|-----------------|-----------------|
E|-0-0-0-0-0-0-0-0-|-0-0-0-0-0-0-0-0-|
 
Fig.2
G|-----------------|-----------------|-------------------|-----------------|
D|-----------------|-----------------|-------------------|-----------------|
A|-----------------|-----------------|-------------------|-----------------|
E|-2---2-2-2-2-2-2-|-2-2-2-2-2-2-2-2-|-5---5-5-5-5-5-5-5-|-5-5-5-5-5-5-5-5-|
 
G|-----------------|-----------------|-------------------|-----------------|
D|-----------------|-----------------|-------------------|-----------------|
A|-----------------|-----------------|-2-----------------|-----------------|
E|-4---4-4-4-4-4-4-|-4-4-4-4-4-4-4-4-|-------------------|-----------------|
 
Solo
G|-----------------|-----------------|-------------------|-----------------|
D|-----------------|-----------------|-------------------|-----------------|
A|-----------------|---------5-4-----|-------------------|-----------------|
E|-3-3-3-3-3-3-3-3-|-3-3-3-3-----5-4-|-(4)-3-3-3-3-3-3-3-|-3-3-3-3-3-3-3-3-|
 
G|-----------------|-----------------|-------------------|-----------------|
D|-----------------|-----------------|-------------------|-----------------|
A|-----------------|---------5-4-----|-------------------|-----------------|
E|-3-3-3-3-3-3-3-3-|-3-3-3-3-----5-4-|-(4)-3-3-3-3-3-3-3-|-3-3-3-3-3-3-3-3-|
 
G|-----------------|-----------------|-------------------|-----------------|
D|-----------------|---------4-3-----|-------------------|-----------------|
A|-2-2-2-2-2-2-2-2-|-2-2-2-2-----4-3-|-(3)-2-2-2-2-2-2-2-|-2-2-2-2-2-2-2-2-|
E|-----------------|-----------------|-------------------|-----------------|
 
G|-----------------|-----------------|-------------------|-----------------|
D|-----------------|---------4-3-----|-------------------|-----------------|
A|-2-2-2-2-2-2-2-2-|-2-2-2-2-----4-3-|-(3)-2-2-2-2-2-2-2-|-2-2-2-2-2-2-2-2-|
E|-----------------|-----------------|-------------------|-----------------|
 
G|-----------------|-----------------|-------------------|-----------------|
D|-----------------|---------7-6-----|-------------------|-----------------|
A|-5-5-5-5-5-5-5-5-|-5-5-5-5-----7-6-|-(6)-5-5-5-5-5-5-5-|-5-5-5-5-5-5-5-5-|
E|-----------------|-----------------|-------------------|-----------------|
 
G|-----------------|-----------------|-------------------|-----------------|
D|-----------------|---------7-6-----|-------------------|-----------------|
A|-5-5-5-5-5-5-5-5-|-5-5-5-5-----7-6-|-(6)-5-5-5-5-5-5-5-|-5-5-5-5-5-5-5-5-|
E|-----------------|-----------------|-------------------|-----------------|
 
Interlude
G|------------------|------------------|
D|------------------|--------------9---|
A|-----7-8-10-8-----|-7-8-10-8-8-7-----|
E|-0-0----------0-0-|------------------|
 
----------------
Song structure: |
----------------
Intro      1x
Verse      6x
Chorus     1x
Fig.1      1x
Verse      4x
Chorus     1x
Fig.2      1x
Solo       1x
Interlude  4x
Verse      4x
Chorus     4x



[GUITAR TAB:] 

Intro
|-----------------------------------------------------------------------|
|-----------------------------------------------------------------------|
|-----------------------------------------------------------------------|
|------6-2---2-3-----2---4-5---4-4-4-5---5---7----7-6-------------------|
|--9-8-4-2---------5-----------2-2-2-3-----5------5-4----8-7------------|
|--7-6---0-----------------------------------------------6-5------------|
   * * *                       * * *
 
|-----------------------------------------------------------------------|
|-----------------------------------------------------------------------|
|-----------------------------------------------------------------------|
|--2---2-3-----2---4-5----4-4-4-5---5---7----7-6---2--------------------|
|--2---------5------------2-2-2-3-----5------5-4---2--------------------|
|--0-----------------------------------------------0--------------------|
                           * * *
Pre-Verse
|-----------------------------------------------------------------------|
|-----------------------------------------------------------------------|
|-----------------------------------------------------------------------|
|---3-----4-----------------3/4---3---2---------------------------------|
|---3-----4-----------------1/2---3---2---------------------------------|
|---1-0-0-2-0-0-0-0-0-0-0-0-----0-1---0-0-0-0-0-0-0-0-0-0-0-0-0-0-0-----|
      * *   * * * * * * * *     *       * * * * * * * * * * * * * *
|-----------------------------------------------------------------------|
|-----------------------------------------------------------------------|
|-----------------------------------------------------------------------|
|---3-----4-----------------3/4---3---2---------------------------------|
|---3-----4-----------------1/2---3---2---------------------------------|
|---1-0-0-2-0-0-0-0-0-0-0-0-----0-1---0-0-0-0-0-0-0-0-0-0-0-0-0-0-0-----|
      * *   * * * * * * * *     *       * * * * * * * * * * * * * *
 
(Guitar 2 comes)
|--------------|
|--------------|
|--------------|
|-3-3-3-3-3-3--|
|-3-3-3-3-3-3--|
|-1-1-1-1-1-1--|
  * * * * * *
 
Verse
|-----------------------------------------------------------------------|
|-----------------------------------------------------------------------|
|-----------------------------------------------------------------------|
|---3-----4-----------------3/4---3---2---------------------------------|
|---3-----4-----------------1/2---3---2---------------------------------|
|---1-0-0-2-0-0-0-0-0-0-0-0-----0-1---0-0-0-0-0-0-0-0-0-0-0-0-0-0-0-----|
      * *   * * * * * * * *     *       * * * * * * * * * * * * * *
|-----------------------------------------------------------------------|
|-----------------------------------------------------------------------|
|-----------------------------------------------------------------------|
|---3-----4-----------------3/4---3---2---------------------------------|
|---3-----4-----------------1/2---3---2---------------------------------|
|---1-0-0-2-0-0-0-0-0-0-0-0-----0-1---0-0-0-0-0-0-0-0-0-0-0-0-0-0-0-----|
      * *   * * * * * * * *     *       * * * * * * * * * * * * * *
|-----------------------------------------------------------------------|
|-----------------------------------------------------------------------|
|-----------------------------------------------------------------------|
|---3-----4-----------------3/4---3---2---------------------------------|
|---3-----4-----------------1/2---3---2---------------------------------|
|---1-0-0-2-0-0-0-0-0-0-0-0-----0-1---0-0-0-0-0-0-0-0-0-0-0-0-0-0-0-----|
      * *   * * * * * * * *     *       * * * * * * * * * * * * * *
|-----------------------------------------------------------------------|
|-----------------------------------------------------------------------|
|-----------------------------------------------------------------------|
|---3-----4-----------------3/4---3---2---------------------------------|
|---3-----4-----------------1/2---3---2---------------------------------|
|---1-0-0-2-0-0-0-0-0-0-0-0-----0-1---0-0-0-0-0-0-0-0-0-0-0-0-0-0-0-----|
      * *   * * * * * * * *     *       * * * * * * * * * * * * * *
Chorus
|-------------------------------------------------------------------------|
|-------------------------------------------------------------------------|
|--------------------4----------------------------------------------------|
|---3-2------5-------4------4---3----2------------------------------------|
|---3-2------5-------2------4---3----2------------------------------------|
|---1-0------3--------------2---1----0------------------------------------|
 
Verse 2 
 
 
|-----------------------------------------------------------------------|
|-----------------------------------------------------------------------|
|-----------------------------------------------------------------------|
|---3-----4-----------------3/4---3---2---------------------------------|
|---3-----4-----------------1/2---3---2---------------------------------|
|---1-0-0-2-0-0-0-0-0-0-0-0-----0-1---0-0-0-0-0-0-0-0-0-0-0-0-0-0-0-----|
      * *   * * * * * * * *     *       * * * * * * * * * * * * * *
 
|-----------------------------------------------------------------------|
|-----------------------------------------------------------------------|
|-----------------------------------------------------------------------|
|---3-----4-----------------3/4---3---2---------------------------------|
|---3-----4-----------------1/2---3---2---------------------------------|
|---1-0-0-2-0-0-0-0-0-0-0-0-----0-1---0-0-0-0-0-0-0-0-0-0-0-0-0-0-0-----|
      * *   * * * * * * * *     *       * * * * * * * * * * * * * *
 
|-----------------------------------------------------------------------|
|-----------------------------------------------------------------------|
|-----------------------------------------------------------------------|
|---3-----4-----------------3/4---3---2---------------------------------|
|---3-----4-----------------1/2---3---2---------------------------------|
|---1-0-0-2-0-0-0-0-0-0-0-0-----0-1---0-0-0-0-0-0-0-0-0-0-0-0-0-0-0-----|
      * *   * * * * * * * *     *       * * * * * * * * * * * * * *
 
|-----------------------------------------------------------------------|
|-----------------------------------------------------------------------|
|-----------------------------------------------------------------------|
|---3-----4-----------------3/4---3---2---------------------------------|
|---3-----4-----------------1/2---3---2---------------------------------|
|---1-0-0-2-0-0-0-0-0-0-0-0-----0-1---0-0-0-0-0-0-0-0-0-0-0-0-0-0-0-----|
      * *   * * * * * * * *     *       * * * * * * * * * * * * * *
 
Chorus 2 
 
|-------------------------------------------------------------------------|
|-------------------------------------------------------------------------|
|--------------------4----------------------------------------------------|
|---3-2------5-------4------4---3-----------------------------------------|
|---3-2------5-------2------4---3-----------------------------------------|
|---1-0------3--------------2---1-----------------------------------------|
 
Riff Before Drum Solo 
 
|---------------------------------------------------------------------------|
|---------------------------------------------------------------------------|
|----------------------------------------------------------------4----------|
|-4--------------------7--------------------4--------------------4----------|
|-4--------------------7--------------------4--------------------2----------|
|-2--2-2-2-2-2-2-2-2-2-5--5-5-5-5-5-5-5-5-5-6--6-6-6-6-6-6-6-6-6------------|
     * * * * * * * * *    * * * * * * * * *    * * * * * * * * *
 
Solo Rhythm
|-----------------------------------------------------------------------|
|-----------------------------------------------------------------------|
|-----------------------------------------------------------------------|
|---5-----5-----------------6-5-----------------------------------------|
|---5-----5-----------------4-3--6-5------------------------------------|
|---3-3-3-3-3-3-3-3-3-3-3-3------4-3--3-3-3-3-3-3-3-3-3-3-3-3-3-3-------|
      * *   * * * * * * * *           * * * * * * * * * * * * * *
|-----------------------------------------------------------------------|
|-----------------------------------------------------------------------|
|-----------------------------------------------------------------------|
|---5-----5-----------------6-5-----------------------------------------|
|---5-----5-----------------4-3--6-5------------------------------------|
|---3-3-3-3-3-3-3-3-3-3-3-3------4-3--3-3-3-3-3-3-3-3-3-3-3-3-3-3-------|
      * *   * * * * * * * *           * * * * * * * * * * * * * *
|-----------------------------------------------------------------------|
|-----------------------------------------------------------------------|
|-----------------------------------------------------------------------|
|---9-----9----------------10-9-----------------------------------------|
|---9-----9-----------------8-7-10-9------------------------------------|
|---7-7-7-7-7-7-7-7-7-7-7-7------8-7--7-7-7-7-7-7-7-7-7-7-7-7-7-7-------|
      * *   * * * * * * * *           * * * * * * * * * * * * * *
 
|-----------------------------------------------------------------------|
|-----------------------------------------------------------------------|
|-----------------------------------------------------------------------|
|---9-----9----------------10-9-----------------------------------------|
|---9-----9-----------------8-7-10-9------------------------------------|
|---7-7-7-7-7-7-7-7-7-7-7-7------8-7--7-7-7-7-7-7-7-7-7-7-7-7-7-7-------|
      * *   * * * * * * * *           * * * * * * * * * * * * * *
|-----------------------------------------------------------------------|
|-----------------------------------------------------------------------|
|---7-----7-----------------8-7-----------------------------------------|
|---7-----7-----------------6-5-8-7-------------------------------------|
|---5-5-5-5-5-5-5-5-5-5-5-5-----6-5--5-5-5-5-5-5-5-5-5-5-5-5-5-5--------|
|-----------------------------------------------------------------------|
      * *   * * * * * * * *          * * * * * * * * * * * * * *
|-----------------------------------------------------------------------|
|-----------------------------------------------------------------------|
|---7-----7-----------------8-7-----------------------------------------|
|---7-----7-----------------6-5-8-7-------------------------------------|
|---5-5-5-5-5-5-5-5-5-5-5-5-----6-5--5-5-5-5-5-5-5-5-5-5-5-5-5-5--------|
|-----------------------------------------------------------------------|
      * *   * * * * * * * *          * * * * * * * * * * * * * *
 
Interlude 
 
Guitar 1
|------------------------------------------------------------------------|
|------------------------------------------------------------------------|
|------------------------------------------------------------------------|
|---------------------------------9--------------------------------------|
|-------7-8-10-8-----7-8-10-8-8-7----------------------------------------|
|---0-0----------0-0-----------------------------------------------------|
    * *          * *
|------------------------------------------------------------------------|
|------------------------------------------------------------------------|
|------------------------------------------------------------------------|
|---------------------------------9--------------------------------------|
|-------7-8-10-8-----7-8-10-8-8-7----------------------------------------|
|---0-0----------0-0-----------------------------------------------------|
    * *          * *
|------------------------------------------------------------------------|
|------------------------------------------------------------------------|
|------------------------------------------------------------------------|
|---------------------------------9--------------------------------------|
|-------7-8-10-8-----7-8-10-8-8-7----------------------------------------|
|---0-0----------0-0-----------------------------------------------------|
    * *          * *
|------------------------------------------------------------------------|
|------------------------------------------------------------------------|
|------------------------------------------------------------------------|
|------------------------------------------------------------------------|
|-------7-8-10-8-----7-8-10-8-(8\)---------------------------------------|
|---0-0----------0-0-----------------------------------------------------|
    * *          * *
 
Guitar 2
|------------------------------------------------------------------------|
|------------------------------------------------------------------------|
|--------------------------------------11--------------------------------|
|-------9-10-12-10-----9-10-12-10-10-9-----------------------------------|
|------------------------------------------------------------------------|
|---0-0------------0-0---------------------------------------------------|
    * *            * *
|------------------------------------------------------------------------|
|------------------------------------------------------------------------|
|--------------------------------------11--------------------------------|
|-------9-10-12-10-----9-10-12-10-10-9-----------------------------------|
|------------------------------------------------------------------------|
|---0-0------------0-0---------------------------------------------------|
    * *            * *
|------------------------------------------------------------------------|
|------------------------------------------------------------------------|
|--------------------------------------11--------------------------------|
|-------9-10-12-10-----9-10-12-10-10-9-----------------------------------|
|------------------------------------------------------------------------|
|---0-0------------0-0---------------------------------------------------|
    * *            * *
|------------------------------------------------------------------------|
|------------------------------------------------------------------------|
|------------------------------------------------------------------------|
|-------9-10-12-10-----9-10-12-10-(10\)----------------------------------|
|------------------------------------------------------------------------|
|---0-0------------0-0---------------------------------------------------|
    * *            * *
 
Verse 3 
 
|-----------------------------------------------------------------------|
|-----------------------------------------------------------------------|
|-----------------------------------------------------------------------|
|---3-----4-----------------3/4---3---2---------------------------------|
|---3-----4-----------------1/2---3---2---------------------------------|
|---1-0-0-2-0-0-0-0-0-0-0-0-----0-1---0-0-0-0-0-0-0-0-0-0-0-0-0-0-0-----|
      * *   * * * * * * * *     *       * * * * * * * * * * * * * *
 
|-----------------------------------------------------------------------|
|-----------------------------------------------------------------------|
|-----------------------------------------------------------------------|
|---3-----4-----------------3/4---3---2---------------------------------|
|---3-----4-----------------1/2---3---2---------------------------------|
|---1-0-0-2-0-0-0-0-0-0-0-0-----0-1---0-0-0-0-0-0-0-0-0-0-0-0-0-0-0-----|
      * *   * * * * * * * *     *       * * * * * * * * * * * * * *
 
|-----------------------------------------------------------------------|
|-----------------------------------------------------------------------|
|-----------------------------------------------------------------------|
|---3-----4-----------------3/4---3---2---------------------------------|
|---3-----4-----------------1/2---3---2---------------------------------|
|---1-0-0-2-0-0-0-0-0-0-0-0-----0-1---0-0-0-0-0-0-0-0-0-0-0-0-0-0-0-----|
      * *   * * * * * * * *     *       * * * * * * * * * * * * * *
 
|-----------------------------------------------------------------------|
|-----------------------------------------------------------------------|
|-----------------------------------------------------------------------|
|---3-----4-----------------3/4---3---2---------------------------------|
|---3-----4-----------------1/2---3---2---------------------------------|
|---1-0-0-2-0-0-0-0-0-0-0-0-----0-1---0-0-0-0-0-0-0-0-0-0-0-0-0-0-0-----|
      * *   * * * * * * * *     *       * * * * * * * * * * * * * *
 
Chorus 3
|-------------------------------------------------------------------------|
|-------------------------------------------------------------------------|
|--------------------4----------------------------------------------------|
|---3-2------5-------4------4---3-----------------------------------------|
|---3-2------5-------2------4---3-----------------------------------------|
|---1-0------3--------------2---1-----------------------------------------|
 
|-------------------------------------------------------------------------|
|-------------------------------------------------------------------------|
|--------------------4----------------------------------------------------|
|---3-2------5-------4------4---3-----------------------------------------|
|---3-2------5-------2------4---3-----------------------------------------|
|---1-0------3--------------2---1-----------------------------------------|
 
|-------------------------------------------------------------------------|
|-------------------------------------------------------------------------|
|--------------------4----------------------------------------------------|
|---3-2------5-------4------4---3-----------------------------------------|
|---3-2------5-------2------4---3-----------------------------------------|
|---1-0------3--------------2---1-----------------------------------------|
 
|-------------------------------------------------------------------------|
|-------------------------------------------------------------------------|
|--------------------4----------------------------------------------------|
|---3-2------5-------4------4---3-----------------------------------------|
|---3-2------5-------2------4---3-----------------------------------------|
|---1-0------3--------------2---1-----------------------------------------|
 
|-------------------------------------------------------------------------|
|-------------------------------------------------------------------------|
|-------------------------------------------------------------------------|
|---3-2----------------(2)------------------------------------------------|
|---3-2----------------(2)------------------------------------------------|
|---1-0----------------(0)------------------------------------------------|
 

[LYRICS:]

Don't look at me as if I didn't know
Your vanity is all you ever show
What you believe and advocate
Fanatic dogma recycled from yesterday

Got a master plan
Genocide
Can't understand
People of the lie

You are to me the waste of flesh and blood
I'd love to see you buried in the mud
And when you die no one will shed a tear
So pass me by don't need your hatred here

Got a master plan
Genocide
Can't understand
People of the lie

Prejudice, intolerance, eye for an eye

You cannot hide behind those empty claims
Your racist pride is nothing but a game
And you will lose for right is on the side
Of those who choose to fight for humankind

Got a master plan
Genocide
Can't understand
People of the lie

You can't believe
Don't be deceived


Тональность:

Это должно быть в ТОП-листе! - Топ-лист композиций



Назад
Рекомендуем посмотреть другие песни исполнителя «Kreator»:

  • Комменты Fb ()
  • Комменты ВК



Добавить в Избранное Браузера
Сохранить здесь Очистить


x

0


+
-

+
-

-

Авторизация





Зарегистрироваться

M

Дата и время

  • 20:42:13
     

Социальные ссылки


Наши приложения

  • Muzbank App Play Market
  • Muzbank Amazon App