MUZBANK


МУЗЫКАЛЬНО-ИНФОРМАЦИОННЫЙ БАНК





ККузя • Шняга-Шняжная (табулатуры) (аккорды и текст - chords & lyrics)


4446

Print

Видео «Шняга-Шняжная (табулатуры) (Кузя)»

Видео клипы к песне подбираются автоматически сайтом youtube. Возможны некоторые несоответствия клипов песне.

↑ Спрятать рекламу ↑







Em D Am 
E||------------0р1-------1-----|-----------------------------------| 
B||---------0-------3--------3-|-------------0р1------------------| 
G||------0-------------2-------|----------2-------2---------------| ЭТО 2 Раза 
D||-----------------------------|-------2--------------------------| 
A||---2-------------------------|----0-----------------------------| 
E||-----------------------------|-----------------------------------| 

C D 
E||------------------0-------|--------------0p1----------------| 
B||-----------1--------1----|------------3-------2------------| 
G||--------0-----------------|--------2-----------------------| 
D||------2-------------------|-----0--------------------------| 
A||----3----------------------|---------------------------------| 
E||---------------------------|---------------------------------| 
Это вступление 
Далее перебор 
Em D Am 
E||-----------0-----------2---|-----------------------------------| 
B||--------0-----------3------|-------------0р1------------------| 
G||------0----------2---------|----------2-------2---------------| ЭТО 3 Раза 
D||---------------0------------|-------2--------------------------| 
A||---2------------------------|----0-----------------------------| 
E||-----------------------------|----------------------------------| 
C D 
E||---------------------0------|------------0p1----------------| 
B||-----------0р1--------1----|----------3-----2--------------| 
G||--------0------0-----------|--------2-----------------------| 
D||------2----------2---------|-----0--------------------------| 
A||----3----------------------|---------------------------------| 
E||----------------------------|---------------------------------| 
Далее бой 
V ** V * ^ ^ V ^ V V ^ 
V - вниз 
^ - вверх 
* - мальенькая пауза 
** - пауза чуть побольше 
Играется в такой последовательности: 
V**V *^^V ^VV^ V**V *^^V^VV^ 
Еm D Am 
Т.е. аккорды Em и D играются оба на один такт боя. А Am играется полностью 
аккорды (в скобках будут те, которые под один такт боя идут) 
(Em D) Am 
(Em D) Am 
(Em D) Am 
C D это все куплет 
C C 
Em Em 
C C 
Em Em и т.д. это припев

Тональность:

Это должно быть в ТОП-листе! - Топ-лист композиций



Назад
Рекомендуем посмотреть другие песни исполнителя «Кузя»:

  • Комменты Fb ()
  • Комменты ВК



Добавить в Избранное Браузера
Сохранить здесь Очистить


x

0


+
-

+
-

-

Авторизация





Зарегистрироваться

M

Дата и время

  • 07:48:44
     

Социальные ссылки


Наши приложения

  • Muzbank App Play Market
  • Muzbank Amazon App