MUZBANK


МУЗЫКАЛЬНО-ИНФОРМАЦИОННЫЙ БАНК





LLa Ley • Bon Voyage (аккорды и текст - chords & lyrics)


534

Print

Видео «Bon Voyage (La Ley)»

Видео клипы к песне подбираются автоматически сайтом youtube. Возможны некоторые несоответствия клипов песне.

↑ Спрятать рекламу ↑





                     G                                 Am
1|------3-----3-----3--------3-----3-----3-|-5-4-3----5---4--3----
2|----3---3-----3----------3---3-----3-----|--------4----------4--
3|--4-------4-----4------4-------4-----4---|----------------------
4|-5--------------------5------------------|----------------------
5|-----------------------------------------|----------------------
6|-----------------------------------------|----------------------

                     G                                  Am
1|-------3-----3-----3--------3------3-----3-|-3-3/5-5/7-7/8--5/7--7/8---
2|-----3---3-----3----------3---3------3-----|---------------------------            
3|---4-------4-----4------4-------4-----4----|---------------------------
4|-5--------------------5--------------------|---------------------------
5|-------------------------------------------|---------------------------
6|-------------------------------------------|---------------------------

          C              G
1|-----------------|-------------
2|--8---8---8---8--|-3--3--3--3--
3|--9---9---9---9--|-4--4--4--4--
4|-10--10--10--10--|-5--5--5--5--
5|-10--10--10--10--|-5--5--5--5--
6|-----------------|-------------

G
Luces Que Llegan Nubes Que Espian
Am
Esta Ciudad - Nuestra Ciudad
G
Mensaje Claro, Pruebas Que Quitan
Am
Escepticidad En Nuestra Ciudad
C                                           D
Esta Ciudad Abre Sus Brazos Al Don
                 G                       Am
De Este Coraz0n - Nuestro Coraz0n.

G  Am

C                                          G
Esta Ciudad Abre Sus Brazos Al Corazon
 
                    G                                 Am
1|------3-----3-----3--------3-----3-----3-|-5-4-3----5---4--3----
2|----3---3-----3----------3---3-----3-----|--------4----------4--
3|--4-------4-----4------4-------4-----4---|----------------------
4|-5--------------------5------------------|----------------------
5|-----------------------------------------|----------------------
6|-----------------------------------------|----------------------

                     G                                  Am
1|-------3-----3-----3--------3------3-----3-|-3-3/5-5/7-7/8--5/7--7/8---
2|-----3---3-----3----------3---3------3-----|---------------------------            
3|---4-------4-----4------4-------4-----4----|---------------------------
4|-5--------------------5--------------------|---------------------------
5|-------------------------------------------|---------------------------
6|-------------------------------------------|---------------------------

          C              G
1|-----------------|-------------
2|--8---8---8---8--|-3--3--3--3--
3|--9---9---9---9--|-4--4--4--4--
4|-10--10--10--10--|-5--5--5--5--
5|-10--10--10--10--|-5--5--5--5--
6|-----------------|-------------

G
Seres Que Vuelan Angeles Quedan
Am
Para Evacuar - Esta Ciudad
G
Miren El Signo, Sigan El Ritmo
Am
Para Viajar, Para Volar
C                                           D
Esta Ciudad Abre Sus Brazos Al Don
                 G                   Am
De Este Coraz0n - Nuestro Coraz0n.

 (Bon Voyage)
                     G                                 Am
1|------3-----3-----3--------3-----3-----3-|-5-4-3----5---4--3----
2|----3---3-----3----------3---3-----3-----|--------4----------4--
3|--4-------4-----4------4-------4-----4---|----------------------
4|-5--------------------5------------------|----------------------
5|-----------------------------------------|----------------------
6|-----------------------------------------|----------------------
                     G                                  Am
1|-------3-----3-----3--------3------3-----3-|-3-3/5-5/7-7/8--5/7--7/8---
2|-----3---3-----3----------3---3------3-----|---------------------------            
3|---4-------4-----4------4-------4-----4----|---------------------------
4|-5--------------------5--------------------|---------------------------
5|-------------------------------------------|---------------------------
6|-------------------------------------------|---------------------------
          C              G
1|-----------------|-------------
2|--8---8---8---8--|-3--3--3--3--
3|--9---9---9---9--|-4--4--4--4--
4|-10--10--10--10--|-5--5--5--5--
5|-10--10--10--10--|-5--5--5--5-- 
6|-----------------|-------------

C                                           G
Esta Ciudad, Abre Sus Brazos A Un Coraz0n.
C                                          G
Oye Ciudad, Abre Tus Ojos A Un Coraz0n.

Solo :
 
    G      Am      G       Am                C               D
1|------------------------------------|---3---3---3-|---5---5---5---5--
2|-3/12/7--7--9h----3/12/7--9--5--3---|-5---5---5---|-5---5---5---5----
3|----------------------------------4-|-------------|------------------

        G                       Am
De Este Coraz0n - Nuestro Coraz0n
                     G                                 Am
1|------3-----3-----3--------3-----3-----3-|-5-4-3----5---4--3----
2|----3---3-----3----------3---3-----3-----|--------4----------4--
3|--4-------4-----4------4-------4-----4---|----------------------
4|-5--------------------5------------------|----------------------
5|-----------------------------------------|----------------------
6|-----------------------------------------|----------------------
                     G                                  Am
1|-------3-----3-----3--------3------3-----3-|-3-3/5-5/7-7/8--5/7--7/8---
2|-----3---3-----3----------3---3------3-----|---------------------------            
3|---4-------4-----4------4-------4-----4----|---------------------------
4|-5--------------------5--------------------|---------------------------
5|-------------------------------------------|---------------------------
6|-------------------------------------------|---------------------------

Тональность:

Это должно быть в ТОП-листе! - Топ-лист композиций



Назад
Рекомендуем посмотреть другие песни исполнителя «La Ley»:

  • Комменты Fb ()
  • Комменты ВК



Добавить в Избранное Браузера
Сохранить здесь Очистить


x

0


+
-

+
-

-

Авторизация





Зарегистрироваться

M

Дата и время

  • 23:16:54
     

Социальные ссылки


Наши приложения

  • Muzbank App Play Market
  • Muzbank Amazon App