MUZBANK


МУЗЫКАЛЬНО-ИНФОРМАЦИОННЫЙ БАНК





LLed Zeppelin • Achilles Last Stand (аккорды и текст - chords & lyrics)


730

Print

Видео «Achilles Last Stand (Led Zeppelin)»

Видео клипы к песне подбираются автоматически сайтом youtube. Возможны некоторые несоответствия клипов песне.

↑ Спрятать рекламу ↑





 


[Intro] Let bottom note ring throughout, and open G (when it is played)

   Em9                         F#m(add b6)
e:-------------2p0----------|--------------2p0--------------------|
B:----------3------3p0------|-----------3-------3p0---------------|
G:-0------0-------------0---|--0------2--------------0------------|
D:------4-------------------|-------4-----------------------------|
A:----2---------------------|-----4-------------------------------|
E:-0------------------------|--2----------------------------------|

[Intro2]
    F#m7(add 4)
e:----------------0--------------------------------------------------|
B:------------0--(0)-------------------------------------------------|
G:--0------2---------------------------------------------------------|
D:-------4-----------------------------------------------------------|
A:-------------------------------------------------------------------|
E:--2----------------------------------------------------------------|

[Riff 1]
    F#m/E     Em                                 D6/E
e:----9.-------7----7~-----------------------------7~----------------|
B:---10.-------8----8~-----------------------------7~----------------|
G:---11.-------9----9~-----------------------------7~----------------|
D:------------------------7-7--7-7-8-9--7-7--------7~----------------|
A:------------------------------------------7-7----------------------|
E:----------------------------------------------0--------------------|

[Riff 2a]
                              D/E
e:---------9------7~----------------5~-------------------------------|
B:--------10------8~-----------7----7~-------------------------------|
G:--------11------9~-----------7----7~-------------------------------|
D:-----------------------------7-------------------------------------|
A:-------------------------------------------------------------------|
E:---0~--------------------0~----------------------------------------|

[Riff 2b]
                                   D/E
e:---------9------7~----------------7~-------------------------------|
B:--------10------8~-----------7----7~-------------------------------|
G:--------11------9~-----------7----7~-------------------------------|
D:-----------------------------7-------------------------------------|
A:-------------------------------------------------------------------|
E:---0~--------------------0~----------------------------------------|

[Riff 3]
    E                                       F5
e:---------------------------------------|---------|-----------------|
B:--9---7--8--9--------------------------|---------|-----------------|
G:--9---7--8--9---7-8-9-9--7-8-9--7-9----|--10~----|--10~~----------|
D:--9---7--8--9---7-8-9-9--7-8-9--7-9----|--10~----|--10~~----------|
A:---------------------------------------|---------|-----------------|
E:---------------------------------------|---------|-----------------|

[Ascending octave progression 1]
   Em
e:-------------------------------------------------------------------|
B:-------------------------------------------------------------------|
G:-------------------------------------------------------------------|
D:--4s5----5s7---7s9-----10-----10s12--------------------------------|
A:------7------9-----10------12--------14----------------------------|
E:-------------------------------------------------------------------|

[Ascending octave progression 2]
   C(add9 #11)
e:-------------------------------------------------------------------|
B:-------------------------------------------------------------------|
G:--7s9-----11----12-----12s14-----14s16-----------------------------|
D:------10-----12----14---------16--------17s12----------------------|
A:-------------------------------------------------------------------|
E:-------------------------------------------------------------------|

[Ascending octave progression 3]
   Em
e:-------------------------------------------------------------------|
B:-------------------------------------------------------------------|
G:-2s4----5----5s7---7s9-----9s11------------------------------------|
D:-----5----7------9-----10-------12s9-------------------------------|
A:-------------------------------------------------------------------|
E:-------------------------------------------------------------------|

[Ascending octave progression 4]
    C(add9 #11)                             F#m/E     Em
e:-------------------------------------------------------------------|
B:--7s8----10----10s12------13------15--------17s19---17--17~~~------|
G:------9-----11---------12------14-----16---------------------------|
D:-------------------------------------------------------------------|
A:-------------------------------------------------------------------|
E:-------------------------------------------------------------------|

[Riff 4a] - the notes in () 

Тональность:

Это должно быть в ТОП-листе! - Топ-лист композиций



Назад
Рекомендуем посмотреть другие песни исполнителя «Led Zeppelin»:

  • Комменты Fb ()
  • Комменты ВК



Добавить в Избранное Браузера
Сохранить здесь Очистить


x

0


+
-

+
-

-

Авторизация





Зарегистрироваться

M

Дата и время

  • 14:04:34
     

Социальные ссылки


Наши приложения

  • Muzbank App Play Market
  • Muzbank Amazon App