MUZBANK


МУЗЫКАЛЬНО-ИНФОРМАЦИОННЫЙ БАНК





LLed Zeppelin • Boogie With Stu (аккорды и текст - chords & lyrics)


599

Print

Видео «Boogie With Stu (Led Zeppelin)»

Видео клипы к песне подбираются автоматически сайтом youtube. Возможны некоторые несоответствия клипов песне.

↑ Спрятать рекламу ↑






E|-------------------------------------------------|
B|-------------------------------------------------|
G|-------------------------------------------------|
D|-2-2-4-4-2-2-4-2-2-4-2--2-2-4-2--2-2-4-4-2-2-4-2-|
A|-0-0-0-0-0-0-0-0-0-0-0--0-0-0-0--0-0-0-0-0-0-0-0-|
E|-------------------------------------------------|

E|-------------------------------------------------|
B|-------------------------------------------------|
G|-----------------2-2-4-4-2-2-4-2--2-4-2--2-2-4-2-|
D|-2-4-2--2-2-4-2--0-0-0-0-0-0-0-0--0-0-0--0-0-0-0-|
A|-0-0-0--0-0-0-0----------------------------------|
E|-------------------------------------------------|

E|-------------------------------------------------|
B|-------------------------------------------------|
G|-2-2-4-4-2-2-4-2--2-4-2--2-2-4-2-----------------|
D|-0-0-0-0-0-0-0-0--0-0-0--0-0-0-0-2-2-4-4-2-2-4-2-|
A|---------------------------------0-0-0-0-0-0-0-0-|
E|-------------------------------------------------|

E|-------------------------------------------------|
B|-------------------------------------------------|
G|-------------------------------------------------|
D|-2-4-2--2-2-4-2----------------------------------|
A|-0-0-0--0-0-0-0--2-2-4-4-2-2-4-2--2---2--2-2-4-2-|
E|-----------------0-0-0-0-0-0-0-0--0-3-0--0-0-0-0-|

   E
E|---| And this is the basic riff played throughout the whole
B|---| song. Unfortunatly, I do not own a mandolin, so I can`t
G|-1-| post the mandolin solo.
D|-2-|
A|-2-|
E|-0-|

This is one of those songs where Robert tends to
mumble the lyrics, so these lyrics aren`t totally
accurate

Leaving town, now, baby
(I`d) leave before I call
Yeah Yeah Yeah Yeah Darlin`
Leave before I go home
I don`t want no Tutti-Fruiti-
No-life rock
Now come on baby just rock rock rock

Yeah ya ya ya honey,
We can shake them on down...
Whoa wo wo wo Darlin`
We just go on and ride...
Ahhhhhh
Ooooh... my head..
ROCK ON!

Hey Babe, Hey Babe (x4)

I don`t no Tutti-Fruiti-
No-Life Rock...
Now come on baby just rock rock rock

I don`t no Tutti-Fruiti-
No Life Rock
Now come on baby just rock rock rock

Тональность:

Это должно быть в ТОП-листе! - Топ-лист композиций



Назад
Рекомендуем посмотреть другие песни исполнителя «Led Zeppelin»:

  • Комменты Fb ()
  • Комменты ВК



Добавить в Избранное Браузера
Сохранить здесь Очистить


x

0


+
-

+
-

-

Авторизация





Зарегистрироваться

M

Дата и время

  • 01:34:51
     

Социальные ссылки


Наши приложения

  • Muzbank App Play Market
  • Muzbank Amazon App