MUZBANK


МУЗЫКАЛЬНО-ИНФОРМАЦИОННЫЙ БАНК





LLed Zeppelin • Bring It On Home (аккорды и текст - chords & lyrics)


471

Print

Видео «Bring It On Home (Led Zeppelin)»

Видео клипы к песне подбираются автоматически сайтом youtube. Возможны некоторые несоответствия клипов песне.

↑ Спрятать рекламу ↑






G|-------------------------|
D|-----------5/9-7-6-7-6---|
A|-----5-7---------------7-|
E|-5-7-----0---------------|

G|-----------------------|
D|-----------5/9-7-6-7-6-|
A|-----5-7---------------|
E|-5-7-----0-------------|

the rest goes basically like this, with little things added in
for spice

G|-------------------------------|
D|-2-2---------2-2-2---2---2-----|
A|---------2-4-------4---4-------|
E|-----3-4-------------------3-0-|

7--0-----------| 3X

G||-------------|-------------|---------------|----------------|
D||-------------|-------------|---------------|----------------|
A||-----------7-|7-7-7--77----|7--777--------7|7--7-7-7-7-7----|
E||0-0-4-5-7-9-9|---9--9---3-0|-------4-5-7-9-|----9-------3-0-|
   Gotta tell you baby...      Tryin` to love me baby...
   Tell you pretty baby..      I`m gonna keep you lovin`...

G|--------------|--------------|---------------|---------------|
D|--------------|--------------|---------------|---------------|
A|7-777--------7|7-7-7-7-7-7---|7-777-------7--|7-777-4-7------|
E|------4-5-7-9-|---9-------3-0|------457-79--9|-----------3-0-|

G|---------7-----9|----------------|-----------7---9-|
D|-------79--9911-|----------------|---------79-911--|
A|7--777----------|7--75-----------|7--777-7---------|
E|----------------|-----7-5-4-43-0-|-----------------|

G|---------------|----------7---9|---------------|-------------|
D|---------------|--------79-911-|---------------|-------------|
A|7-777-5--------|7-777-7--------|7-777-5--------|7-77--7-775--|
E|--------7-53-0-|---------------|--------7-53-0-|-----------7-|

G|-------------|---------------|--------------|----------------|
D|-------9-767-|-------9-7676--|-------9--767-|-------9--7676--|
A|--57---------|--57---------7-|--57----------|--57----------7-|
E|57--0--------|57--0----------|57--0---------|57--0-----------|
                                   __________________
                                   1.                |
G|----------------|----------------|---------------- -|
D|-------9--767---|-------9-97676--|-------9-9767---o-|
A|--57------------|--57----------7-|--57------------o-|
E|57--0-----------|57--0-----------|57--0----------- -|
 _________________
 2.
G|----------------|--|
D|-------9--767---|7-|
A|--57------------|--|
E|57--0-----------|--|

G|----------------|----|
D|----------------|----|
A|----------------|----|
E|----------------| 8X-|

Тональность:

Это должно быть в ТОП-листе! - Топ-лист композиций



Назад
Рекомендуем посмотреть другие песни исполнителя «Led Zeppelin»:

  • Комменты Fb ()
  • Комменты ВК



Добавить в Избранное Браузера
Сохранить здесь Очистить


x

0


+
-

+
-

-

Авторизация





Зарегистрироваться

M

Дата и время

  • 15:47:47
     

Социальные ссылки


Наши приложения

  • Muzbank App Play Market
  • Muzbank Amazon App