MUZBANK


МУЗЫКАЛЬНО-ИНФОРМАЦИОННЫЙ БАНК





LLed Zeppelin • Fool In The Rain (аккорды и текст - chords & lyrics)


439

Print

Видео «Fool In The Rain (Led Zeppelin)»

Видео клипы к песне подбираются автоматически сайтом youtube. Возможны некоторые несоответствия клипов песне.

↑ Спрятать рекламу ↑






Electric Guitar: Main Rythm

E|-0--1---3---5---5---3----------------0--1--3---5---5--3-|
B|-1--3---5---5---5---4---3------------1--3--5---5---5--3-|
G|-0--2---4---5---5---4---4------------0--2--4---5---5--4-|
D|------------------------5-------------------------------|
A|--------------------------------------------------------|
E|--------------------------------------------------------|

Acoustic 12-String during Rythym Pickup
E|-----------------------------------------------|
B|--------------5--------------------------------|
G|-------5----5------7---4------7--4--5-----4----|
D|-----5----7----------------------------7-----5-|
A|---7-------------------------------------------|
E|-----------------------------------------------|

Acoustic Guitar during the middle with all the percussion
E|--0--0------1--1----1-----3--3--3--3-|
B|--1--1------1--1----1-----3--3--3--3-|
G|--0--0------2--2----2-----4--4--4--4-|
D|--2--2------3--3----3-----5--5--5--5-|
A|--3--3-------------------------------|
E|-------------------------------------|

Electric Guitar during the middle
E|---0--0-----1--1----1-----3--3--3--3-|
B|---1--1-----1--1----1-----3--3--3--3-|
G|---0--0-----2--2----2-----4--4--4--4-|
D|-------------------------------------|
A|-------------------------------------|
E|-------------------------------------|

Guitar Solo is a Guitar Synth down one octave

E|---------------------------------------------------------|
B|-----5--8--5--6-----5--8--5--6--5-----3-6-3-5----3-5-3-5-|
G|---------------------------------------------------------|
D|---7--------------7-----------------5----------5---------|
A|---------------------------------------------------------|
E|---------------------------------------------------------|

E|------------------------------------------------------------|
B|-31--3--1------------------------6p5-6p5--------------------|
G|----2--2--2---------------7---5------------7-5--7-5----5----|
D|------------5-----5-7-5-7---7-----------------------7-----7-|
A|--------------5/7-------------------------------------------|
E|------------------------------------------------------------|

E|------------------------|
B|------------------------|
G|-7--5-----5-------5-4---|
D|----------------7-----5-|
A|------------------------|
E|------------------------|

E|---------------------------------5---------------------------|
B|-------------------5-6-5---5-6-8---8-6-5-6-5-6-5-------------|
G|-----4-5-4---4-5-7-------7-----------------------7-5-7-5-7-5-|
D|-5-7-------7-------------------------------------------------|
A|-------------------------------------------------------------|
E|-------------------------------------------------------------|

E|-----------|
B|-----------|
G|-------5-7-|
D|-7-5-7-----|
A|-----------|
E|-----------|

E|---------------------------5-5-------------------------------|
B|---------------6-5---5-6-8-----8-6-5-6-5---------------10--8-|
G|-5-7-5-------5-----7---------------------7-5-7---5-7/9----9--|
D|-------7-7-7-----------------------------------7-------------|
A|-------------------------------------------------------------|
E|-------------------------------------------------------------|

E|----3--------------------------------------------------------|
B|-5-6--5-6-3-5-3----------------------------------------------|
G|---------------5-4-5-4---------------------------------------|
D|-----------------------5----------------------12-14-15-14-12-|
A|-------------------------12-14-15-14-12-14-15----------------|
E|-------------------------------------------------------------|

E|----------------------------------------12-------------------|
B|-------------------12----------12-12-15----15-12-15-12-12-12-|
G|-------12-12-14-14----14-12-14-------------------------------|
D|-14-15-------------------------------------------------------|
A|-------------------------------------------------------------|
E|-------------------------------------------------------------|

E|---------------|
B|----12---------|
G|-14---14-14-12-|
D|---------------|
A|---------------|
E|---------------|

E|----------------------------------------------------------|
B|----------------------------------------------------------|
G|----12----------------------------------------------------|
D|-15----14-15-14-15-14-12-14-12----------------------------|
A|-------------------------------15-15-14-12-15-14-15-14----|
E|-------------------------------------------------------15-|

E|-12-12------------------10-----------------------------------|
B|-------------------------------------------------------------|
G|-------9-9-9-10-9----------7-7-7-7-9-7-9-7-----7-9-7---------|
D|------------------10---------------------------------9-7-9-7-|
A|---------------------10--------------------------------------|
E|-------------------------------------------------------------|

E|-------------------------------------------------------------|
B|-------------------------------------------------5-6-5---5-6-|
G|---------------7--5----5--7-----5----4----4----7-------7-----|
D|-5-7-5-------7------7-------------------7----7---------------|
A|--------5/10-------------------------------------------------|
E|-------------------------------------------------------------|

E|-5----------------------------------------------------------|
B|---8-8-5-6-5---5--------------------------------------------|
G|-------------7---7-5-7-5-4-5-4---4-5--4------5-----4--------|
D|-------------------------------7---------7------7----5/7--5-|
A|------------------------------------------------------------|
E|------------------------------------------------------------|

Guitar Synth during Vocals Part
E|----------------------|
B|----------------------|
G|----------------------|
D|---3--5---------2-5---|
A|-3----------2-5-----3-|
E|----------3-----------|

Acoustic Guitar to end:

E|-3------------5------------------------------|
B|---5-5----------5-6------8-6-5-----6-5-------|
G|-------4-5----------5-5--------7-5-----7-5-4-|
D|---------------------------------------------|
A|---------------------------------------------|
E|---------------------------------------------|

Тональность:

Это должно быть в ТОП-листе! - Топ-лист композиций



Назад
Рекомендуем посмотреть другие песни исполнителя «Led Zeppelin»:

  • Комменты Fb ()
  • Комменты ВК



Добавить в Избранное Браузера
Сохранить здесь Очистить


x

0


+
-

+
-

-

Авторизация





Зарегистрироваться

M

Дата и время

  • 11:52:32
     

Социальные ссылки


Наши приложения

  • Muzbank App Play Market
  • Muzbank Amazon App