MUZBANK


МУЗЫКАЛЬНО-ИНФОРМАЦИОННЫЙ БАНК





LLed Zeppelin • Friends (аккорды и текст - chords & lyrics)


759

Print

Видео «Friends (Led Zeppelin)»

Видео клипы к песне подбираются автоматически сайтом youtube. Возможны некоторые несоответствия клипов песне.

↑ Спрятать рекламу ↑





Rythym figure 1:
Repeat twice

E|-0--3--0--2--0--0--2--0--2--0--2--0--0--0--0--0--3--0--2--0-|
B|-0--3--0--2--0--0--2--0--2--0--2--0--0--0--0--0--3--0--2--0-|
G|-0--------------------------------0--0--0--0----------------|
D|-0--------------------------------0--0--0--0----------------|
A|-0--------------------------------0--0--0--0----------------|
E|-0--------------------------------0--0--0--0----------------|

E|-0--2--0--2--0--2--0-0-0--0--0--3--0--2--0--0--2--0--2--0--2-|
B|-0--2--0--2--0--2--0-0-0--0--0--3--0--2--0--0--2--0--2--0--2-|
G|-------------------0-0-0--0----------------------------------|
D|-------------------0-0-0--0----------------------------------|
A|-------------------0-0-0--0----------------------------------|
E|-------------------0-0-0--0----------------------------------|

E|-0--0--0--0--0--3--0--2--0----0------------------------------|
B|-0--0--0--0--0--3--0--2--0----0------------------------------|
G|-0--0--0--0-------------------0------------------------------|
D|-0--0--0--0-------------------0------------------------------|
A|-0--0--0--0-------------------0----3-X---2-X---5-X---4X---7X-|
E|-0--0--0--0-------------------0----3-X---2-X---5-X---4X---7X-|

Rythym figure 2:

E|-0-0-0-0-0-0-0-0-0-0-0-0-0-0-0-0-0-0-0-0-0-0-0-|
B|-0-0-0-0-0-0-0-0-0-0-0-5-5-5-5-3-3-3-3-3-3-3-3-|
G|-0-0-0-0-0-0-0-0-0-0-0-------------------------|
D|-0-0-0-0-0-0-0-0-0-0-0-3-3-3-3-1-1-1-1-1-1-1-1-|
A|-0-0-0-0-0-0-0-0-0-0-0-0-0-0-0-0-0-0-0-0-0-0-0-|
E|-0-0-0-0-0-0-0-0-0-0-0-0-0-0-0-0-0-0-0-0-0-0-0-|

E|-0-0-0-0-0-0-0-0-0-0-0-0-0-0-0-0-0-0-0-0-0-0-0-0-|
B|-3-3-3-3-3-3-3-3-3-3-7-7-7-7-5-5-5-5-5-5-5-5-5-5-|
G|-------------------------------------------------|
B|-5-5-5-5-5-5-5-5-5-5-5-5-5-5-3-3-3-3-3-3-3-3-3-3-|
A|-0-0-0-0-0-0-0-0-0-0-0-0-0-0-0-0-0-0-0-0-0-0-0-0-|
E|-0-0-0-0-0-0-0-0-0-0-0-0-0-0-0-0-0-0-0-0-0-0-0-0-|

E|-0-0-0-0-0-0-0-0-0-0-0-0-0-0-0-0-0-0-0-0-0-0-0-0-|
B|-5-5-5-5-5-5-5-5-5-5-5-7-7-7-7-7-7-7-7-7-7-7-7-7-|
G|-------------------------------------------------|
D|-3-3-3-3-3-3-3-3-3-3-3-5-5-5-5-5-5-5-5-5-5-5-5-5-|
A|-0-0-0-0-0-0-0-0-0-0-0-0-0-0-0-0-0-0-0-0-0-0-0-0-|
E|-0-0-0-0-0-0-0-0-0-0-0-0-0-0-0-0-0-0-0-0-0-0-0-0-|

E|-0-0-0-0-0-0-0-0-0-0-0-0-|
B|-7-7-7-7-7-3-3-3-3-5-5-5-|
G|-------------------------|
D|-5-5-5-5-5-1-1-1-1-3-3-3-|
A|-0-0-0-0-0-0-0-0-0-0-0-0-|
E|-0-0-0-0-0-0-0-0-0-0-0-0-|

Rythym Figure 3:

E|-0-0-0-0-0-0-0-0-0-0-0-0-0-0-0-0-0-0-0-0-0-0-0-|
B|-0-0-0-0-0-0-0-0-0-0-0-5-5-5-5-3-3-3-3-3-3-3-3-|
G|-0-0-0-0-0-0-0-0-0-0-0-------------------------|
D|-0-0-0-0-0-0-0-0-0-0-0-3-3-3-3-1-1-1-1-1-1-1-1-|
A|-0-0-0-0-0-0-0-0-0-0-0-0-0-0-0-0-0-0-0-0-0-0-0-|
E|-0-0-0-0-0-0-0-0-0-0-0-0-0-0-0-0-0-0-0-0-0-0-0-|

E|-0-0-0-0-0-0-0-0-0-0-0-0-0-0-0-0-0-0-0-0-0-0-|
B|-3-3-3-3-3-3-3-3-3-3-5-5-5-5-7-7-7-7-9-9-9-9-|
G|---------------------------------------------|
B|-1-1-1-1-1-1-1-1-1-1-3-3-3-3-5-5-5-5-7-7-7-7-|
A|-0-0-0-0-0-0-0-0-0-0-0-0-0-0-0-0-0-0-0-0-0-0-|
E|-0-0-0-0-0-0-0-0-0-0-0-0-0-0-0-0-0-0-0-0-0-0-|

E|-0--0--0--0--0--0--0--0-|
B|-3--3--3--3--5--5--5--5-|
G|------------------------|
D|-1--1--1--1--3--3--3--3-|
A|-0--0--0--0--0--0--0--0-|
E|-0--0--0--0--0--0--0--0-|

-* Lyrics and Guitar *-

(Rythym Fig. 1)
(Rythym Fig. 2)
Bright light almost blinding
Black night still there shining
I can`t stop; keep on climbing
Looking for what I knew

(Rythym Fig. 2)
Had a friend she once told me,
"You got love, you ain`t lonley,"
Now she`s gone and left me only
Looking for what I knew

(Rythym Fig. 3)
(Rythym Fig. 1)
Mmm, I`m tellin` you now,
The greatest thing you ever can do now
Is trade a smile with someone who`s blue now
It`s very easy just

(Rythym Fig. 2)
Met a man on the roadside crying
Without a friend there`s no denying
Your incomplete there`ll be no finding
Looking for what you knew

(Rythym Fig. 2)
So anytime somebody needs you
Don`t let `em down although it grieves you
Some day you`ll need someone like they do
Looking for what you knew

(Rythym Fig. 3)
(Rythym Fig. 1)
Mmm, I`m tellin` you now
The greatest thing you ever can do now
Is trade a smile with someone who`s blue now
It`s very easy just

(Rythym Fig. 2)
(Rythym Fig. 2)
End with a barrage of open C chords, and a droning sound

Тональность:

Это должно быть в ТОП-листе! - Топ-лист композиций



Назад
Рекомендуем посмотреть другие песни исполнителя «Led Zeppelin»:

  • Комменты Fb ()
  • Комменты ВК



Добавить в Избранное Браузера
Сохранить здесь Очистить


x

0


+
-

+
-

-

Авторизация





Зарегистрироваться

M

Дата и время

  • 16:38:35
     

Социальные ссылки


Наши приложения

  • Muzbank App Play Market
  • Muzbank Amazon App