MUZBANK


МУЗЫКАЛЬНО-ИНФОРМАЦИОННЫЙ БАНК





LLed Zeppelin • Going To California (аккорды и текст - chords & lyrics)


768

Print

Видео «Going To California (Led Zeppelin)»

Видео клипы к песне подбираются автоматически сайтом youtube. Возможны некоторые несоответствия клипов песне.

↑ Спрятать рекламу ↑






Tuning:   D A D G B E

Intro:

----------------|----------------|---5---5---5---5|---5-5-5-5---5-7|
----------------|----------------|-5---5---5---5--|--7-5---5---5-7-|
----------------|-7-7-----7-7----|--7---7---7---7-|------7---7-----|
--0---0---0---0-|--0---0---0---0-|----------------|----------------|
----------------|----------------|----------------|----------------|
0---0---0---0---|0---0---0---0---|0---0---0---0---|0---------------|

                                    p                p
3--2---0-------3|---2---0--------|--20---0---0----|--20---0---0----|
-0---0---0-3----|-0---0---0-3----|-----3---3---3--|-----3---3---3--|
--0---0------0--|--0---0------0--|--2---2---2---2-|--2---2---2---2-|
----------0---0-|----------0---0-|----------------|----------------|
----------------|----------------|----------------|----------------|
5---5---5---5---|5---5---5---5---|0---0---0---0---|0---0---0---0---|

Spent...         Smoked...        All...
Made...          Goin`...         In...
Some...          Love...          In...

        p        h       h                p        h       h
--1111--10---0--|02---0--02---0--|--1111--10---0--|02---0--02---0--|
--3333--3--3----|---3---3---3----|--3333--3--3----|---3---3---3----|
--2222----------|----------------|--2222----------|----------------|
0---------------|--0---0---0---0-|0---------------|--0---0---0---0-|
--------2-------|----------------|--------2-------|----------------|
----------------|0---0---0---0---|----------------|0---0---0---0---|

(double spaced for double digits...  essentially an Am7 up 9 frets...)

 - - - 12- - - 12- - - 12- - - 12| - - - 12- - - 12- - - 12- - - 12|
 - - 10- - - 10- - - 10- - - 10- | - - 10- - - 10- - - 10- - - 10- |
 - 11- - - 11- - - 11- - - 11- - | - 11- - - 11- - - 11- - - 11- - |
 - - - - 0 - - - - - - - 0 - - - | - - - - 0 - - - - - - - 0 - - - |
 - - - - - - - - - - - - - - - - | - - - - - - - - - - - - - - - - |
 0 - - - - - - - 0 - - - - - - - | 0 - - - - - - - 0 - - - - - - - |

                                    p                p
----------------|----------------|--20---0---0----|--20---0---0----|
---0---3---0----|---0---3---3----|-----3---3---3--|-----3---3---3--|
-0---0---0---0-0|-0---0---0---0--|--0---0---0---0-|--0---0---0---0-|
--0---0---0---0-|--0---0---0---0-|----------------|----------------|
----------------|----------------|----------------|----------------|
5---5---5---5---|5---5---5---5---|0---0---0---0---|0---0---0---0---|

Took...          Never...         same...
Sea...           Wonder...        day...
Mount...         Chil...          wake...            watch out...

                                          h                h
-0---0---0---0--|-0---0---0---0--|-----------0----|-----------0----|
6--6---6---6---6|---6---6---6----|--2-----23---3--|--2-----23---3--|
--7---7---7---7-|--7---7---7---7-|-----2----------|-----2----------|
0---0---0---0---|0---0---0---0---|--2---2---2---2-|--2---2---2---2-|
----------------|----------------|0---0---0---0---|0---0---0---0---|
----------------|----------------|----------------|----------------|

Seems...       nose...            sinking...
Throw...         Meet...          high...

ending:
  p                p                p                p
--20---0---0----|--20---0---0----|--20---0---0----|--20---0---0----|
-----3---3---3--|-----3---3---3--|-----3---3---3--|-----3---3---3--|
--2---2---2---2-|--2---2---2---2-|--2---2---2---2-|--2---2---2---2-|
----------------|----------------|----------------|----------------|
----------------|----------------|----------------|----------------|
0---0---0---0---|0---0---0---0---|0---0---0---0---|0---0---0---0---|
Ahhhhh.....      Ahhhhh.....      Ahhhhh.....
Ahhhhh.....      Ahhhhh.....      Ahhhhh.....      Fade out...

Spent my days with a woman unkind:
Smoked my stuff and drank  all my wine.
Made up my mind, make a new start,
Goin` to California with an achin` in my heart.
Someone told me there`s a girl out there
With love in her eyes and flowers in her hair.

Took my chances on a big jet plane.
Never let `em tell you that they`re all the same.
Ah, the Sea was red and the Sky was grey:
I wondered how tomorrow could ever follow today.
The mountains and the canyons start to tremble and shake:
Children of the Sun begin to wake....  [spoken:] watch out

Seems like the wrath of the Gods: got a punch on the nose
and it`s startin` to flow, I think I might be sinking.
Throw me a line, if I reach it in time
(I`ll) meet you up there where the path runs straight and high.

Find a Queen without a King,
They say she plays guitar and cries and sings: la-la-la-la.
Ride a white mare on the footsteps of Dawn,
Tryin` to find a woman who`s never, never, never been born.
Standing on a hill and a mountain of dreams,
Telling myself it`s not as hard, hard, hard as it seems....

Ahhhhh..... Ahhhhh..... Ahhhhh.....
Ahhhhh..... Ahhhhh..... Ahhhhh.....      Fade out...

Тональность:

Это должно быть в ТОП-листе! - Топ-лист композиций



Назад
Рекомендуем посмотреть другие песни исполнителя «Led Zeppelin»:

  • Комменты Fb ()
  • Комменты ВК



Добавить в Избранное Браузера
Сохранить здесь Очистить


x

0


+
-

+
-

-

Авторизация





Зарегистрироваться

M

Дата и время

  • 07:26:11
     

Социальные ссылки


Наши приложения

  • Muzbank App Play Market
  • Muzbank Amazon App