MUZBANK


МУЗЫКАЛЬНО-ИНФОРМАЦИОННЫЙ БАНК





LLed Zeppelin • I`m Gonna Crawl (аккорды и текст - chords & lyrics)


612

Print

Видео «I`m Gonna Crawl (Led Zeppelin)»

Видео клипы к песне подбираются автоматически сайтом youtube. Возможны некоторые несоответствия клипов песне.

↑ Спрятать рекламу ↑






Riff 1:

   C                  Am
e|----------0---------------------0--35-|
b|-------------1---------------1--------|
g|-------0--------0---------2-----------|
d|----2------------------2--------------|
a|-3------------------0-----------------|
E|--------------------------------------|

Riff 2:

(when Robert is going "cause she is my girl")

          v
e|--------5----------------X-|
b|--------5----------------X-|
g|--------5----------------X-|
d|-3--7-----------7-----5----|
a|-5--7-----------7-----5----|
E|-5--5-----------5-----3----|

Riff 3:

(This is the "If she would come back and only stay")

e|----------------------------------------------|
b|----------------------------------------------|
g|--7-----------7----------------------9------2-|
d|--7-----------7----------(7)---------9------2-|
a|--5-----------5----------(7)---------7------0-|
E|-------------------------(5)------------------|

                                                A   Ab
e|----------------------------------------------5--3-|
b|----------------------------------------------5--3-|
g|----------------------------------------------6--4-|
d|-9--9--9--9--9--9--9--9--9--9--9--9--9--9--9--7--5-|
a|-9--9--9--9--9--9--9--9--9--9--9--9--9--9--9--7--5-|
E|-7--7--7--7--7--7--7--7--7--7--7--7--7--7--7--5--3-|
Lyrics:

Oh, she`s my baby                 (Riff 1)
Let me tell you why
Hey, she drives me crazy
She`s the apple of my eye
`Cause she is my girl             (Riff 2)
And she can never do me wrong
If I dream too much at night
Somebody please bring me down

Hey, I love that little lady      (Riff 1)
I got to be her fool
Ain`t no other than my baby
I can break the golden rule
`Cause I get down on my knees     (Riff 2)
Oh, I pray that love won`t die
And if I always try to please
And I don`t know the reason why

If she would come back            (Riff 3)
And only stay with me
Oh yeah
Every little bit, every little bit,
Every little bit of my love
I give to you girl
Every little bit, every little bit,
Every little bit of myy love, oh

I don`t have to go by plane       (Riff 1)
I don`t have to go by car
People, I don`t care just where my darling is
I just don`t care how far
I`m Gonna Crawl, I`m Gonna Crawl
I don`t care if I have to go back home
I don`t care where I got to stand to get to you
I`m Gonna Crawl, I`m Gonna Crawl
Ah, ooh, ooh, I`m gonna move the car, baby
I say, she give me good lovin`
She give me good lovin`
She give me good lovin`
My baby give me good lovin`
Ooh, yes I love her
I guess I love her
Yes, I love her
I`m Gonna Crawl  (C chord at end of Riff 1)

I`ll post the solo once I figure it out. but here`s all I know.

If anyone knows the solo, then re-post this. Sorry for any
mistakes

Тональность:

Это должно быть в ТОП-листе! - Топ-лист композиций



Назад
Рекомендуем посмотреть другие песни исполнителя «Led Zeppelin»:

  • Комменты Fb ()
  • Комменты ВК



Добавить в Избранное Браузера
Сохранить здесь Очистить


x

0


+
-

+
-

-

Авторизация





Зарегистрироваться

M

Дата и время

  • 01:38:37
     

Социальные ссылки


Наши приложения

  • Muzbank App Play Market
  • Muzbank Amazon App