MUZBANK


МУЗЫКАЛЬНО-ИНФОРМАЦИОННЫЙ БАНК





LLed Zeppelin • Love (аккорды и текст - chords & lyrics)


470

Print

Видео «Love (Led Zeppelin)»

Видео клипы к песне подбираются автоматически сайтом youtube. Возможны некоторые несоответствия клипов песне.

↑ Спрятать рекламу ↑





Main Riff:

e|------------------------------------|
B|------------------------------------|
G|----------------9--------9--------9-|
D|----------------9--------9--------9-|
A|-------5----5---7--------7--------7-|
E|-(5)>7----7-------0-0-0----0-0-0----|

Solo:
e|----------12----------------------------------|
B|-10/12-------15--12---------------------------|
G|---------------------15p14p12--14p12--14>(16)-|
D|----------------------------------------------|
A|----------------------------------------------|
E|----------------------------------------------|

         /-3-- /-3--
e|-----------------------------------------------|
B|-----------------------------------------------|
G|-2/4---4p2--0--2p0-0--2p0----------------------|
D|---------------------------2p0--2p0------------|
A|-------------------------------------2---------|
E|---------------------------------------------0-|

e|---------12-10>(12)-12-15-10>(12)-|-12 15>(19)>15-12----15p12|
B|-10>(12)-12-----------------------|------------------14------|
G|----------------------------------|--------------------------|
D|----------------------------------|--------------------------|
A|----------------------------------|--------------------------|
E|----------------------------------|--------------------------|

  /-----3------   /---3---
e|---19>(21)-19-18-17-15----15---|---------------------17-19---|
B|17---------------------17----17|17-19-19>(21)-19>(21)------17|
G|-------------------------------|-----------------------------|
D|-------------------------------|-----------------------------|
A|-------------------------------|-----------------------------|
E|-------------------------------|-----------------------------|

Тональность:

Это должно быть в ТОП-листе! - Топ-лист композиций



Назад
Рекомендуем посмотреть другие песни исполнителя «Led Zeppelin»:

  • Комменты Fb ()
  • Комменты ВК



Добавить в Избранное Браузера
Сохранить здесь Очистить


x

0


+
-

+
-

-

Авторизация





Зарегистрироваться

M

Дата и время

  • 21:34:05
     

Социальные ссылки


Наши приложения

  • Muzbank App Play Market
  • Muzbank Amazon App