MUZBANK


МУЗЫКАЛЬНО-ИНФОРМАЦИОННЫЙ БАНК





LLed Zeppelin • Misty Mountain` Hop (аккорды и текст - chords & lyrics)


480

Print

Видео «Misty Mountain` Hop (Led Zeppelin)»

Видео клипы к песне подбираются автоматически сайтом youtube. Возможны некоторые несоответствия клипов песне.

↑ Спрятать рекламу ↑






There are really only three parts to the tab:

Section 1:

-----------------------------------------
------------------------2---------------	Do this 4 times
-----------------------------------------
-------5-----3----0-------0----5------

Section 2

Then,

----------------------------------------------------------
-----------------------------------------------------------
-----------------------------------------------------------
---5-5-5-5-5-5-5-5-5-5-5-5-5-5-5-5-5-5-5-5-

The first two sections repeat a few times, then it goes to:

Section 3

And you know how it is.............          I really don`t...

---------------------------------------|-------------------------------|
------------------------2-------------|----------------------------4-|
------------------------------------4-|------5---5----0----5-------|
-------3----------0---------0-------|--------------------------------|

     time it was.....                    whoa, oh,           ho

---------------------------------------|-------------------------------------|
---------------------------------------|-------------------------------------|
---------------------------------------|----------------------------------4-|
------5-------------------------------|-------------------------------------|

--------------------------------|------------------------------|
--------------------------------|-5H-----5----2----------------|
----5-----5------0------2-----5-|----------------------2-------|
--------------------------------|----------------------------3-|

Just mix and match as necessary through the song.  It should not

be too hard to figure out.  If there are any mistakes just e-mail me

and let me know. Also, I am not sure if the timing and note choices

 are correct, but I am sort of new to this. It should be a decent start,

though.

Тональность:

Это должно быть в ТОП-листе! - Топ-лист композиций



Назад
Рекомендуем посмотреть другие песни исполнителя «Led Zeppelin»:

  • Комменты Fb ()
  • Комменты ВК



Добавить в Избранное Браузера
Сохранить здесь Очистить


x

0


+
-

+
-

-

Авторизация





Зарегистрироваться

M

Дата и время

  • 13:10:27
     

Социальные ссылки


Наши приложения

  • Muzbank App Play Market
  • Muzbank Amazon App