MUZBANK


МУЗЫКАЛЬНО-ИНФОРМАЦИОННЫЙ БАНК





LLed Zeppelin • Out On The Tiles (аккорды и текст - chords & lyrics)


386

Print

Видео «Out On The Tiles (Led Zeppelin)»

Видео клипы к песне подбираются автоматически сайтом youtube. Возможны некоторые несоответствия клипов песне.

↑ Спрятать рекламу ↑






 :Intro
 ---------------------------------------------------------------------------
 ---------------------------------------------------------------------------
 ---------------------------------------------------------------------------
 ----------------------------------------7-------7------7-------------------
 ----------------------------------------7-------7------7-------------------
 --3-3-3-3-3-3-3-3--2-2-2-2-2-2-2-2----5-5-----5-5----5-5-------------------

 ===========================================================================

 :Verse   (Repeat this line 2x)  ---Play the whole Verse two times---
 ---------------------------------------------------------------------------
 ---------------------------------------------------------------------------
 ---------------------------------------------------------------------------
 --------4------------------------------------------------------------------
 ------4-------------6-7-6-7-6-7-6------------------------------------------
 --2-5-----------------------------9-4--7-5-7-5--(7 ^ 8)-(8 v 7)-5-7--------

                       ==============================

 ---------------------------------------------------------------------------
 ---------------------------------------------------------------------------
 ---------------------------------------------------------------------------
 --------4------------------------------------------------------------------
 ------4-------------6-7-6-7-6-7-6----|---------------|---------------------
 --2-5-----------------------------9-7-9-7-9-7-9-7-5-4-5-4-5-4-5-4-5--------


 ---------------------------------------------------------------------------
 ---------------------------------------------------------------------------
 ---------------------------------------------------------------------------
 --4-------4-------4--------------------------------------------------------
 --4-------4-------4--------------------------------------------------------
 --2---0---2---0---2--------------------------------------------------------
                     (NOTE: Remember, Verse is in 15/8, so it comes back
                            a beat short! Chorus is in 4/4)

 ===========================================================================

 :Chorus  (Repeat two times)
 ---------0-------------------5----------------5----------------------------
 ---------0-------------------5----------------5-----------------9----------
 ---------1-------------------6----------------6-----------------9----------
 ---------2-------------------7----------------7-----------------9----------
 ---------2-------------------7----------------7----------7-7-7--7--7-7-----
 --0-0-0--0--0-0--------5-5-5-5-5-5------5-5-5-5--5-5-----------------------


 -----------------------------5----------------5-----------------0----------
 ---------9-------------------5----------------5-----------------0----------
 ---------9-------------------6----------------6-----------------1----------
 ---------9-------------------7----------------7-----------------2----------
 ---7-7-7-7--7-7--------------7----------------7-----------------2----------
 -----------------------5-5-5-5-5-5------5-5-5-5--5-5-----0-0-0--0----------


 ---------------------------------------------------------------------------
 ---------------------------------------------------------------------------
 ---------------------------------------------------------------------------
 -----7--------7--------7--------7------------------------------------------
 -----7--------7--------7--------7------------------------------------------
 --5--5-----5--5-----5--5-----5--5------------------------------------------
                    ===================================

     Repeat the whole -Intro,Verse,Chorus- a second time.  Then...
 ===========================================================================

 :Outro
 ---------------------------------------------------------------------------
 ---------------------------------------------------------------------------
 --9--12------9--9--12------9--12------9--14--12----------------------------
 --9--12------9--9--12------9--12------9--14--12----------------------------
 --7--10------7--7--10------7--10------7--12--10----------------------------
 ---------------------------------------------------------------------------

Тональность:

Это должно быть в ТОП-листе! - Топ-лист композиций



Назад
Рекомендуем посмотреть другие песни исполнителя «Led Zeppelin»:

  • Комменты Fb ()
  • Комменты ВК



Добавить в Избранное Браузера
Сохранить здесь Очистить


x

0


+
-

+
-

-

Авторизация





Зарегистрироваться

M

Дата и время

  • 22:33:04
     

Социальные ссылки


Наши приложения

  • Muzbank App Play Market
  • Muzbank Amazon App