MUZBANK


МУЗЫКАЛЬНО-ИНФОРМАЦИОННЫЙ БАНК





LLed Zeppelin • Stairway to heaven (аккорды и текст - chords & lyrics)


690

Print

Видео «Stairway to heaven (Led Zeppelin)»

Видео клипы к песне подбираются автоматически сайтом youtube. Возможны некоторые несоответствия клипов песне.

↑ Спрятать рекламу ↑






   Am          Am+7            C           D         
e|-----------5--7--------7--|--8--------8--2--------2--|
B|--------5--------5--------|-----5-----------3--------|
G|-----5--------------5-----|--------5-----------2-----|
D|--7-----------6-----------|--5-----------4-----------|
A|--------------------------|--------------------------|
E|--------------------------|--------------------------|

 Fmaj7                       G Am                  
|--0-------------0--------|------------------------|
|-----1-----1-------1-----|--0--1--1---------------|
|--------2-------------2--|--0--2--2---------------|
|--3----------------------|------------------/3-2--|
|-------------------------|--2--0--0------0--------|
|-------------------------|------------------------|

             Am+7             C           D         
|--------------7--------7--|--8--------8--2--------2--|
|-----------5-----5--------|-----5-----------3--------|
|--------5-----------5-----|--------5-----------2-----|
|-----7--------6-----------|--5-----------4-----------|
|--0-----------------------|--------------------------|
|--------------------------|--------------------------|

 Fmaj7                       G Am                 
|--0-------------0--------|-----------------------|
|-----1-----1-------1-----|--0--1--1--------------|
|--------2-------------2--|--0--2--2--------------|
|--3----------------------|-----------------------|
|-------------------------|--2--0--0--------0--2--|
|-------------------------|-----------------------|

   C           D            Fmaj7        Am           
|-----------0--2--------2--|--0--------0--------------|
|-----------------3--------|-----1--------0-----------|
|--------0-----------2-----|--------2--------2--------|
|-----2--------0-----------|--3-----------------------|
|--3-----------------------|--------------0-----0--2--|
|--------------------------|--------------------------|

   C           G              D                      
|--------------3--------3--|--7p5-------------------|
|--1--------1-----0--------|--7---7--7--------------|
|-----0--------------0-----|--7---7--7--------------|
|--------2-----------------|--0------0--------------|
|--3-----------------------|------------------0--2--|
|--------------3-----------|------------------------|

   C           D            Fmaj7         Am           
|--------------2--------2--|--0--------0--------------|
|-----------1-----3--------|-----1--------0-----------|
|--------0-----------2-----|--------2--------2--------|
|-----2--------0-----------|--3-----------------------|
|--3-----------------------|--------------0-----0--2--|
|--------------------------|--------------------------|

   C           D            Fmaj7                 
|-----------------------2--|--0--0--0------------|
|-----------1--------3-----|--1--1--1------------|
|--------0--------2--------|--0--2--2------------|
|-----2--------0-----------|--3--3--3------------|
|--3-----------------------|---------------------|
|--------------------------|---------------------|	





             Am        Am+7
  There`s a lady who`s sure
             C          D					
  All that glitters is gold
           Fmaj7                  G Am					
  And she`s buying a stairway to heaven.
                           Am+7			
  When she gets there she knows
           C              D
  If the stores are all closed
         Fmaj7                      G   Am
  With a word she can get what she came for.
  C     D  Fmaj7  Am
  Ooh, ooh, ooh, ooh 
             C         G          D
  And she`s buying a stairway to heaven.
             C           D
  There`s a sign on the wall
         Fmaj7         Am	
  But she wants to be sure					
               C             D             Fmaj7
  `Cause you know sometimes words have two meanings.
	   Am         Am+7
  In a tree by the brook 
             C            D					
  There`s a songbird who sings,
	     Fmaj7                        G Am			
  Sometimes all of our thoughts are misgiven.		

   Am        Am+7                C                D                                     
|-----------5--7-------5-------|--------8---------------2---------|
|----------------5---5---5-----|------5---5-----------3---3-------|
|--------5---------5-------5---|----5-------5---5---2-------2---2-|
|-----7--------6-------------6-|--5-----------5---4-----------4---|
|---0--------------------------|----------------------------------|
|------------------------------|----------------------------------|

  Fmaj7                               G Am           G    
|--------0---------------0---------|----------------------|
|------1---1-----------1---1-------|--0--1--1--------3----|
|----2-------2---2---2-------2---2-|--0--2--2--------0----|
|--3-----------3---3-----------3---|-----------------0----|
|----------------------------------|--2--0--0--------2----|
|----------------------------------|----------------------|

Chorus:

Am7 Am G(III) D   Am7 Am G(VII) D(V) C/D(III) D(V)
Ooh, it makes me wonder,

Am7 Am G(III) D   Am7 Am G(VII) D(V) C/D(III) D(V)
Ooh, it makes me wonder.

             C         G 
  There`s a feeling I get
          Am
  When I look to the west,
           C         G       Fmaj7 Am
  And my spirit is crying for leaving.
          C              G
  In my thoughts I have seen
            Am
  Rings of smoke through the trees,
           C          G               Fmaj7 Am  C G 
  And the voices of those who standing looking.
Chorus:--//--//--
 
And it`s whispered that soon				C G
If we all call the tune					Am
Then the piper will lead us to reason.			C G Fmaj7 Am
And a new day will dawn					C G
For those who stand long				Am
And the forests will echo with laughter.		C G Fmaj7 Am
 
/C G Am7 Am G(III) D    Am7 Am G(VII) D(V) C/D(III) D(V)/

If there`s a bustle in your hedbusgerow			C G Am	
Don`t be alarmed now,					Am
It`s just a spring clean for the May queen.		C G Fmaj7 Am
Yes, there are two paths you can go by			C G Am
But in the long run					Am
There`s still time to change the road you`re on.	C G Fmaj7 Am 

								/ C G /

Chorus:--//--//--

Your head is humming and it won`t go			C G Am
In case you don`t know,					Am
The piper`s calling you to join him,			C G Fmaj7 Am
Dear lady, can you hear the wind blow,			C G Am
And did you know					Am
Your stairway lies on the whispering wind.		C G Fmaj7 Am

		/C G D  D Dsus4 D Dsus4 D Cadd9/ (solo starts here)
 
And as we wind on down the road				Am G F ~ G
Our shadows taller than our soul.			Am G F ~ G
There walks a lady we all know				Am G F ~ G
Who shines white light and wants to show 		Am G F ~ G
How ev`rything still turns to gold. 			Am G F ~ G
And if you listen very hard 				Am G F ~ G
The tune will come to you at last. 			Am G F ~ G
When all are one and one is all 			Am G F ~ G
To be a rock and not to roll. 				Am G Fma7

						/Am Am7 Fmaj7  Am Am7 Fmaj7/
 
And she`s buying a stairway to heaven...


   I                          I                         VII
e|---|---|---|---| - Am+7  e|---|---|---|---| Fmaj7   e|-x-|---|---|---| G(VII)   
H|-x-|---|---|---|	   H|-x-|---|---|---|         H|---|-x-|---|---|
G|-x-|---|---|---|         G|---|-x-|---|---|         G|-x-|---|---|---|
D|---|-x-|---|---|         D|---|---|-x-|---|         D|---|---|---|---|
A|---|---|---|---|         X|---|---|---|---|         X|---|---|---|---|
X|---|---|---|---|         X|---|---|---|---|         X|---|---|---|---|

   V                         III                      
e|-x-|---|---|---| - D(V)  e|-x-|---|---|---| C/D(III)     
H|---|---|-x-|---|	       H|---|---|-x-|---|         
G|---|---|-x-|---|         G|---|---|-x-|---|         
D|---|---|---|---|         D|---|---|---|---|         
X|---|---|---|---|         X|---|---|---|---|         
X|---|---|---|---|         X|---|---|---|---|         


Тональность:

Отправитель: Призрак

Это должно быть в ТОП-листе! - Топ-лист композиций



Назад
Рекомендуем посмотреть другие песни исполнителя «Led Zeppelin»:

  • Комменты Fb ()
  • Комменты ВК



Добавить в Избранное Браузера
Сохранить здесь Очистить


x

0


+
-

+
-

-

Авторизация





Зарегистрироваться

M

Дата и время

  • 05:14:25
     

Социальные ссылки


Наши приложения

  • Muzbank App Play Market
  • Muzbank Amazon App