MUZBANK


МУЗЫКАЛЬНО-ИНФОРМАЦИОННЫЙ БАНК





LLed Zeppelin • Stairway To Heaven (аккорды и текст - chords & lyrics)


439

Print

Видео «Stairway To Heaven (Led Zeppelin)»

Видео клипы к песне подбираются автоматически сайтом youtube. Возможны некоторые несоответствия клипов песне.

↑ Спрятать рекламу ↑






 


ok ascii pacing set to 2 seconds a line this time hehe
/*  sorry guys this time ive got it right... i didnt even make
a backup copy of the other version i sent, vege eh */ 
E-------5-7-----7-|-8-----8-2-----2-|-0---------0-----------|
B-----5-----5-----|---5-------3-----|---1---1-----1---|-0-1-1-----------|
G---5---------5---|-----5-------2-------2-|-0-2-2-----------|
D-7-------6-------|-5-------4-------|-3---------------------|
A-----------------------------|-2-0-0---0--/8-7-|
E-----------------------------------| 
E---------7-----7-|-8-----8-2-----2-|-0---------0-----------|
B-------5---5-----|---5-------3-----|---1---1-----1---|-0-1-1-----------|
G-----5-------5---|-----5-------2-------2-|-0-2-2-----------|
D---7-----6-------|-5-------4-------|-3---------------------|
A-0---------------------------|-2-0-0-------0-2-|
E-----------------------------------| 
E-------0-2-----2-|-0-----0----------|---------3-----3-
B-----------3-----|---1-----0h1------|-1-----1---0-----
G-----0-------2-----2----|---0---------0---
D---2-----0-------|-3----------------------
A-3---------------|---------0----0-2-|-3---------------
E------------------------|---------3-------
                                                               Intro end.
E---------2-----2-|-0-----0--------------2-|-0-0-0-----------|
B-------1---3-----|---1-----0-1------|-------1-----3---|-1-1-1-----------|
G-----0-------2-----2----|-----0-----2-----|-2-2-2-----------|
D---2-----0-------|-3----------------|---2-----0-------|-3-3-3-----------|
A-3---------------|---------0----0-2-|-3---------------------|
E------------------------------------|
                                                               Theres a 
E-------5-7-----7-|-8-----8-2-----2-|-0---------0-----------|
B-----5-----5-----|---5-------3-----|---1---1-----1---|-0-1-1-----------|
G---5---------5---|-----5-------2-------2-|-0-2-2-----------|
D-7-------6-------|-5-------4-------|-3---------------------|
A-----------------------------|-2-0-0-----------|
E-----------------------------------|
 lady whos         glitter            buying a          heaven When she 
E-------5-7-----7-|-8-----8-2-----2-|-0---------0-----------|
B-----5-----5-----|---5-------3-----|---1---1-----1---|-0-1-1-----------|
G---5---------5---|-----5-------2-------2-|-0-2-2-----------|
D-7-------6-------|-5-------4-------|-3---------------------|
A-----------------------------|-2-0-0-------0-2-|
E-----------------------------------|
  gets there        stores are       ord she can get    came for 
E---------2-----2-|-0-----0---------------|---------3-----3-|-3^2-2-2-------|
B-------1---3-----|---1----1--0-1---------|-1---1-1---0-----|-3---3-3-------|
G-----0-------2-------2-------|---0-0-------0---|-2-----2-------|
D---2-----0-------|-3---------------------------|-0-----0-------|
A-3---------------0------0-2--|-3---------------0-2-|
E-----------------------------|---------3-----------|
  Oooh              oooh           and shes buying a          heaven   Theres 
E-------0-2-----2-|-0-----------------|---------2-----2-|-0-0-0-----------|
B-----------3-----|---1--1--0 1-------|-1-----1---3-----|-1-1-1-----------|
G-----0-------2-----2-----|---0---------2---|-2-2-2-----------|
D---2-----0-------|-3-----------------|-----2---0-------|-3-3-3-----------|
A-3-------------------0-2-|-3---------------------|
E-------------------------------------|
  sign on     she  wants         you   know         two   meanings    In a 
E-------5-7-----7-|-8-----8-2-----2-|-0---0-----0-----------|
B-----5-----5-----|---5-------3-----|---1---1-----1---|-0-1-1-----------|
G---5---------5---|-----5-------2-------2-|-0-2-2-----------|
D-7-------6-------|-5-------4-------|-3---------------------|
A-----------------------------|-2-0-0---0--/8-7-|
E-----------------------------------|
  tree    theres a song        times all of our    mis  given 
E--------5-7---7---|----8-------2------|----0-------0----------|
B-----------5-5-5--|---5-5-----3-3-----|---1--1----1-1---|-0-1-1-------3---|
G------5-----5---5-|--5---5---2---2--2-|--2----2--2---2--|-0-2-2-------0---|
D----7-----6-------|-5-----5-4-----4---|-3-------3-----3---0---|
A-0-0----------------------------|-2-0-0-------2---|
E--------------------------------------| 
|-3---3-3-3--3--0-0-|-2-------2-------|-3--3-3-3--3--0-0---7-|--5---3---5----
|-1---1-1-1--1--1-3-|-3--3--3---3-0-0-|-1--1-1-1--1--1-1---8-|--7---5---7----
|-2---2-2-2--2--2-2-|-2-----------0-0-|-2--2-2-2--2--2-2---9-|--7---5---7----
|-2---2-2-2--2--2---|---0-------------|-2--2-2-2--2--2-2---0---0-
---------------------------0-
-----------------------------
                      Oooh it makes me wonder
|-3---3-3-3--3--0-0-|-2-------2-------|-3--3-3-3--3--0-0---7-|--5---3---5----
|-1---1-1-1--1--1-3-|-3--3--3---3-0-0-|-1--1-1-1--1--1-1---8-|--7---5---7----
|-2---2-2-2--2--2-2-|-2-----------0-0-|-2--2-2-2--2--2-2---9-|--7---5---7----
|-2---2-2-2--2--2---|---0-------------|-2--2-2-2--2--2-2---0---0-
---------------------------0-
-----------------------------
   oooh               makes me wonder                                theres a 
-------------------------------------0--|--0--------
---------1------3-|-0h1----------1---------|-------1---------0--|--1--------
-------0------0-----2----------|-----0--------0--2--|--2--------
-----2------0-----|---------2--------------|---2--------0----3--|--2--------
-0h3------2-------|-------0----------0--2--|-3--------2------3--|--0---0-2--
-------------------------------------1--
feeling      when  look to             my    spirit          leaving  in my
whispered          all call the tune then the piper will      to  reason  & 
------------------------------0-|--0------|---------
-------1------3-|-0h1---------1------|-------1--------1-|--1------|----1---3
-----0------0---2--------|-----0-------0--2-|--2------|---0---0-
---2------0-----|---------2----------|---2-------0----3-|--2------|--2---0--
-3------2-------|-------0------0--2--|-3-------2------3-|--0--0-2-|-3---2---
------------------------------1-|---------|---------
thoughts I        smoke through         voices of       looking  [goto %]
new day           those who             forests will  laugh - ter 
|-3--3-3-3--3p-0-0---7-|--5---3---5----|-3--3-3-3--3h-0-0-|-2-----2-2-2-2-0-0-
|-1--1-1-1--1--1-1---8-|--7---5---7----|-1--1-1-1--1--1-3-|-3-----3-3-3-3-0-0-
|-2--2-2-2--2--2-2---9-|--7---5---7----|-2--2-2-2--2--2-0-|-2-----2-2-2-2-0-0-
|-2--2-2-2--2--2-2---0-|----------0----|-2--2-2-2--2--2---|----0--0-----------
-------------0----------------
------------------------------
                                                            whoah
|-3--3-3-3--3--0-0---7-|--5---3---5----|-1--1-1-1--1--1-1---8-|--7---5---7----
|-2--2-2-2--2--2-2---9-|--7---5---7----|-2--2-2-2--2--2-2---0-|----------0----
-------------0----------------  
-------------------------------------0--|--0--------
---------1------3-|-0h1----------1---------|-------1---------1--|--1--------
-------0------0-----2----------|-----0--------0--2--|--2--------
-----2------0-----|---------2--------------|---2--------0----3--|--2--------
-0h3------2-------|-------0----------0--2--|-3--------2------3--|--0---0-2--
-------------------------------------1--
If theres a bust    

Тональность:

Это должно быть в ТОП-листе! - Топ-лист композиций



Назад
Рекомендуем посмотреть другие песни исполнителя «Led Zeppelin»:

  • Комменты Fb ()
  • Комменты ВК



Добавить в Избранное Браузера
Сохранить здесь Очистить


x

0


+
-

+
-

-

Авторизация





Зарегистрироваться

M

Дата и время

  • 09:49:09
     

Социальные ссылки


Наши приложения

  • Muzbank App Play Market
  • Muzbank Amazon App