MUZBANK


МУЗЫКАЛЬНО-ИНФОРМАЦИОННЫЙ БАНК





LLed Zeppelin • Tangerine (аккорды и текст - chords & lyrics)


758

Print

Видео «Tangerine (Led Zeppelin)»

Видео клипы к песне подбираются автоматически сайтом youtube. Возможны некоторые несоответствия клипов песне.

↑ Спрятать рекламу ↑






Tune down 1/4 step.

Verse:

E|------------------------------------3----3----------2---2-|
B|-----1------3------1-----0----------0----0-----0----3---3-|
G|o----2------2------2-----2----------0----0-----0----2---2-|
D|o----2------2------2-----2----------0----0-----0----0---0-|
A|-----0------0------0-----0----------2----2----------------|
E|------------------------------------3----3----------------|

___1st ending
E|-------2-----2-----|
B|-------3-----3-----|
G|-------2-----2----o|
D|--0----0-----0----o|
A|-------------------|
E|-------------------|

___2nd  ending
E|--0---0------0---0---------------------------------------|
B|--1---1------1---1--------------------1----------------3-|
G|--0---0------0---0---------------0-----------------0-----|
D|--2---2------2---2----------2-----------------0----------|
A|--3---3------3---3-----3------------------2--------------|
E|---------------------------------------------------------|

E|-0------0---0-----------------------------2---2-|
B|-1------1--1-------5--5-----3--3-------3---3----|
G|-2------2--2-------5--5-----4--4-------2---2----|
D|-2------2--2-------5--5-----5--5-------0---0----|
A|-0------0--0------------------------------------|
E|------------------------------------------------|

E|-2-------2--2----3----2---------2-|
B|-3-------3--3----3----3----0---3--|
G|-2-------2--2----2----2----0---2--|
D|-0-------0--0----0----0----0---0--|
A|----------------------------------|
E|----------------------------------|

Refrain:
                                  _____1, 2, 3 endings
E|-0--0---0----2--2--2-|-----3-----3-------3---3----2--2--2-|
B|-1--1---1----3--3--3-|-----3-----3-------3---3----3--3--3-|
G|-0--0---0----2--2--2-|o----0-----0-------0---0----2--2--2-|
D|-2--2---2----0--0--0-|o----0-----0-------0---0----0--0--0-|
A|-3--3---3------------|-----2-----2-------2---2------------|
E|---------------------|-----3-----3-------3---3------------|

E|-0---------0----------0---0---0----2---2---2-----|
B|-1---------1----------1---1---1----3---3---3-----|
G|-0---------0----------0---0---0----2---2---2----o|
D|-2---------2----------2---2---2----0---0---0----o|
A|-3---------3----------3---3---3------------------|
E|-3---------3-------------------------------------|

_______4th ending
E|--3--3-----3--3-----3---3-----2---------2-------2-|
B|--0--0-----0--0-----0---0-----3---------3-------3-|
G|--0--0-----0--0-----0---0-----2---------2-------2-|
D|--0--0-----0--0-----0---0-----0-----3--0----3--0--|
A|--2--2-----2--2-----2---2-------------------------|
E|--3--3-----3--3-----3---3-------------------------|

Solo Rhythm:  (Listen to CD)

|Am    |G       |D       |F      |E   F   |E   F  |

then:

E|-0------0-------0---0------3---3---3-------3-|
B|-1------1-------1---1------0---0---0-------0-|
G|-0------0-------0---0------0---0---0-------0-|
D|-2------2-------2---2------0---0---0-------0-|
A|-3------3-------3---3------2---2---2-------2-|
E|---------------------------3---3---3-------3-|

E|-2----------------------|
B|-3-----------3--------3-|
G|-2-----------2--------2-|
D|-0--------3--0----3---0-|
A|------------------------|
E|------------------------|

Refrain

Outro:
___________7  times    ______4  times
E|----2---2---2----------------|---2--2--2--2--2--3--2---|
B|----3---3---3----------------|---3--3--3--3--3--3--3---|
G|o---2---2---2---------------o|o--2--2--2--2--2--2--2--o|
D|o---0---0---0---------------o|o--0--0--0--0--0--0--0--o|
A|-----------------------------|-------------------------|
E|-----------------------------|-------------------------|


E|-------3-----------------------|
B|-0----1-----1------------------|
G|-0----2-----0-----------1----3-|
D|-0----2-----2-----------0------|
A|-------0-------------0---------|
E|-----------------3-------------|

E|------------------------------------|
B|-----------------------------0----1-|
G|-0--0--0---------0---0----2---------|
D|-0--0--0--0-----0---0----3----------|
A|-------------2----------------------|
E|------------------------------------|

E|-3---3---3---3--------3---3---3---3-|
B|-1---1---1---1--------1---1---1---1-|
G|-2---2---2---2--------2---2---2---2-|
D|-3---3---3---3----3---3---3---3---3-|
A|------------------------------------|
E|------------------------------------|

E|------------------------------------|
B|-1----0------------------------[12]-|
G|-0----0----0--------------0----[12]-|
D|-0----0--------------0---------[12]-|
A|-2----2-----------------------------|
E|-3----3---------3-------------------|

Solo (over Solo Rhythm):

E|--------------------------|
B|-10----13----15---^----15-|
G|-12^---15^----------------|
D|--------------------------|
A|--------------------------|
E|--------------------------|

E|-----------------------------------------------|
B|-r12^----r13----12-------12---12------13--/-15-|
G|-----------------------------------------------|
D|-----------------------------------------------|
A|-----------------------------------------------|
E|-----------------------------------------------|

E|-------------------------------15^---15----17^-|
B|---------12--12---13--/-15---------------------|
G|-r14^------------------------------------------|
D|-----------------------------------------------|
A|-----------------------------------------------|
E|-----------------------------------------------|

E|-17^---17^----17---17-------19-^-------20--20^-|
B|-----------------------------------------------|
G|-----------------------------------------------|
D|-----------------------------------------------|
A|-----------------------------------------------|
E|-----------------------------------------------|

Тональность:

Это должно быть в ТОП-листе! - Топ-лист композиций



Назад
Рекомендуем посмотреть другие песни исполнителя «Led Zeppelin»:

  • Комменты Fb ()
  • Комменты ВК



Добавить в Избранное Браузера
Сохранить здесь Очистить


x

0


+
-

+
-

-

Авторизация





Зарегистрироваться

M

Дата и время

  • 01:36:03
     

Социальные ссылки


Наши приложения

  • Muzbank App Play Market
  • Muzbank Amazon App