MUZBANK


МУЗЫКАЛЬНО-ИНФОРМАЦИОННЫЙ БАНК





LLed Zeppelin • When The Levee Breaks (аккорды и текст - chords & lyrics)


839

Print

Видео «When The Levee Breaks (Led Zeppelin)»

Видео клипы к песне подбираются автоматически сайтом youtube. Возможны некоторые несоответствия клипов песне.

↑ Спрятать рекламу ↑






Half-time drum intro: Guitar 1, 12 sring electric:

E|------------0--0----------3--0--0-------|
B|------------3--3----------3--0--0-------|
G|-3p0--0--0--4--4--3p0--0--3--0--0--5--5-|
D|-3p0--0--0--5--5--3p0--0-----------5--5-|
A|----------------------------------------|
E|----------------------------------------|

Keep on repeating that riff a bunch of times until the slide
part enters:

E|-6/8--8--8--8--8--8/10--10--10--10-----------0--5--3-----0-|
B|-6/8--8--8--8--8--8/10--10--10--10-----------3--5--3-----3-|
G|-6/8--8--8--8--8--8/10--10--10--10--5--3--5--0--5--3--5--0-|
D|-6/8--8--8--8--8--8/10--10--10--10--5--3--5--0--5--3--5--0-|
A|-----------------------------------------------------------|
E|-----------------------------------------------------------|

After the "It`s got what it takes to make a mountain man leave
his home oh well oh well oh well" line, and the slide that is
shown above comes this:

12 string
E|----12--12--7--7--7--5--5--5--7--10--12-|
B|----12--12--7--7--7--5--5--5--7--10--12-|
G|-7--12--12--0--7--7--0--5--5--7--0---0--|
D|-7--12--12--0--7--7--0--5--5--7--0---0--|
A|----------------------------------------|
E|----------------------------------------|

After that another slide guitar enters (six string with regular
tuning [EADGBe], with a bit of fuzz or distortion):

E|-1210------12~--75----7~---------5--7--10--12~~~~-|
B|--------12------------8-----87/5------------------|
G|--------------------------------------------------|
D|--------------------------------------------------|
A|--------------------------------------------------|
E|--------------------------------------------------|

Тональность:

Это должно быть в ТОП-листе! - Топ-лист композиций



Назад
Рекомендуем посмотреть другие песни исполнителя «Led Zeppelin»:

  • Комменты Fb ()
  • Комменты ВК



Добавить в Избранное Браузера
Сохранить здесь Очистить


x

0


+
-

+
-

-

Авторизация





Зарегистрироваться

M

Дата и время

  • 23:31:01
     

Социальные ссылки


Наши приложения

  • Muzbank App Play Market
  • Muzbank Amazon App