MUZBANK


МУЗЫКАЛЬНО-ИНФОРМАЦИОННЫЙ БАНК





LLed Zeppelin • Whole Lotta Love (ver 8) (аккорды и текст - chords & lyrics)


811

Print

Видео «Whole Lotta Love (ver 8) (Led Zeppelin)»

Видео клипы к песне подбираются автоматически сайтом youtube. Возможны некоторые несоответствия клипов песне.

↑ Спрятать рекламу ↑





 


Whole Lotta Love     Standard Tuning     Guitarzan Freak 
 
 I am 100% sure this is tab is complete and correct.
  Intro
E|--------------|---------------|---------------|---------------|
B|--------------|---------------|---------------|---------------|
G|--------------|---------------|---------------|---------------|   
D|---0----0-----|---------------|---------------|---------------|    
A|---5~---5~-7--|-7-7-7---7-7-7-|-7-7-7---7-7-7-|-7-7-7---7-7-7-|     
E|-7----7-----0-|-0-0-0---0-0-0-|-0-0-0---0-0-0-|-0-0-0---0-0-0-|

  Intro
E|--------------|---------------|---------------|---------------|
B|--------------|---------------|---------------|---------------|
G|--------------|---------------|---------------|---------------|   
D|---0----0-----|---------------|---------------|---------------|    
A|---5~---5~-7--|-7-7-7---7-7-7-|-7-7-7---7-7-7-|-7-7-7---7-7-7-|     
E|-7----7-----0-|-0-0-0---0-0-0-|-0-0-0---0-0-0-|-0-0-0---0-0-0-|

  Main Riff
E|------------|---------------|
B|------------|---------------|
G|------------|---------------|   
D|---0---0----|---------------| 
A|---5~--5~-7-|-7-7-7---7-7-7-|   
E|-7---7----0-|-0-0-0---0-0-0-| 
                                       
  Riff 1                           
E|-----------------|
B|-----------------|
G|-----------------| 
D|-0-0-0-0-0---9---|  
A|--------------7/-| 
E|-----------------|

  Main Riff
E|------------|---------------|
B|------------|---------------|
G|------------|---------------|   
D|---0---0----|---------------| 
A|---5~--5~-7-|-7-7-7---7-7-7-|   
E|-7---7----0-|-0-0-0---0-0-0-| 
                                       
  Riff 1                           
E|-----------------|
B|-----------------|
G|-----------------| 
D|-0-0-0-0-0---9---|  
A|--------------7/-| 
E|-----------------|
   During the interlude, Page scrapes his
   pick up and down the fret board.

  Solo
E|-----|--------12----------------------------|
B|-9-9-|-10/12-----15-12----------------------|
G|-9-9-|-----------------15p14p12-14p12-14b16-|
D|-9-9-|--------------------------------------|
A|-7-7-|--------------------------------------|
E|-----|--------------------------------------|

E|-----|---------------------------------|
B|-9-9-|---------------------------------|
G|-9-9-|-2/4 

Тональность:

Это должно быть в ТОП-листе! - Топ-лист композиций



Назад
Рекомендуем посмотреть другие песни исполнителя «Led Zeppelin»:

  • Комменты Fb ()
  • Комменты ВК



Добавить в Избранное Браузера
Сохранить здесь Очистить


x

0


+
-

+
-

-

Авторизация





Зарегистрироваться

M

Дата и время

  • 13:45:48
     

Социальные ссылки


Наши приложения

  • Muzbank App Play Market
  • Muzbank Amazon App