MUZBANK


МУЗЫКАЛЬНО-ИНФОРМАЦИОННЫЙ БАНК





LLeftover Crack • So You Wanna Be A Cop (аккорды и текст - chords & lyrics)


399

Print

Видео «So You Wanna Be A Cop (Leftover Crack)»

Видео клипы к песне подбираются автоматически сайтом youtube. Возможны некоторые несоответствия клипов песне.

↑ Спрятать рекламу ↑





 


-------------------------------------------------------------------------------
So You Wanna Be A Cop - Leftover Crack
-------------------------------------------------------------------------------
Tabbed by: James Muggleton
Email: Muggy666@hotmail.com

Tuning:EADGBE

Intro 
e|---------------------------------------------------------------------------|
B|---------------------------------------------------------------------------|
G|------------4--------------------------------------------------------------|
D|-7----------4----------4----------2---x2---2-------------------------------|
A|-7----------2----------4----------2--------2-------------------------------|
E|-5---------------------2----------0--------0-------------------------------|

Intro 1 & Chorus 1      Riff                    Verse
e|---------------------------------------------------------------------------|
B|---------------------------------------------------------------------------|
G|----4--------------9--14--13--9--11-9--------------------------------------|
D|-7--4--4--2 

Тональность:

Это должно быть в ТОП-листе! - Топ-лист композиций



Назад
Рекомендуем посмотреть другие песни исполнителя «Leftover Crack»:

  • Комменты Fb ()
  • Комменты ВК



Добавить в Избранное Браузера
Сохранить здесь Очистить


x

0


+
-

+
-

-

Авторизация





Зарегистрироваться

M

Дата и время

  • 11:29:20
     

Социальные ссылки


Наши приложения

  • Muzbank App Play Market
  • Muzbank Amazon App