MUZBANK


МУЗЫКАЛЬНО-ИНФОРМАЦИОННЫЙ БАНК





LLennon John • Cold Turkey (аккорды и текст - chords & lyrics)


527

Print

Видео «Cold Turkey (Lennon John)»

Видео клипы к песне подбираются автоматически сайтом youtube. Возможны некоторые несоответствия клипов песне.

↑ Спрятать рекламу ↑





Intro:
e|-------5-----------------------------------------------|
B|--7b8--5--7p5-7b8-5-----5----7⁄0---5⁄0---7⁄0-----------|
G|--7b8-----7p5-7b8-5--7--5----7⁄0---5⁄0---7⁄0---7⁄0-----|
D|---------------------7-------------------------7⁄0-----|
A|-------------------------------------------------------|
E|-------------------------------------------------------|


Verse:
e|-----------------------------------|
B|---7b8-7b8-7b8-7b8--5-----5--------|
G|---7b8-7b8-7b8-7b8--5--7--5--------|
D|-----------------------7-----------|
A|-----------------------------------|
E|-----------------------------------|


Chorus:
P.M.................................
e|------------------------------------|
B|------------------------------------|
G|--7-7-7-7-7-7-7-7-7-7-7-7-7-7-7-7---|
D|--7-7-7-7-7-7-7-7-7-7-7-7-7-7-7-7---|
A|--7-7-7-7-7-7-7-7-5-5-5-5-5-5-5-5---|
E|--0-0-0-0-0-0-0-0-0-0-0-0-0-0-0-0---|


After Chorus:
e|-------------------------|
B|---7⁄0---5⁄0-------------|
G|---7⁄0---5⁄0--7⁄0---5⁄0--|
D|--------------7⁄0---5⁄0--|
A|-------------------------|
E|-------------------------|


Solo
e|------------------------------------------|
B|------------------------------------------|
G|------------------------------------------|
D|--5b7-5b7---5b7-5b7---7b9-7b9---5b7-5b7---|
A|------------------------------------------|
E|------------------------------------------|


Outro:

Тональность:

Это должно быть в ТОП-листе! - Топ-лист композиций



Назад
Рекомендуем посмотреть другие песни исполнителя «Lennon John»:

  • Комменты Fb ()
  • Комменты ВК



Добавить в Избранное Браузера
Сохранить здесь Очистить


x

0


+
-

+
-

-

Авторизация





Зарегистрироваться

M

Дата и время

  • 13:39:16
     

Социальные ссылки


Наши приложения

  • Muzbank App Play Market
  • Muzbank Amazon App