MUZBANK


МУЗЫКАЛЬНО-ИНФОРМАЦИОННЫЙ БАНК





LLennon John • Imagine (аккорды и текст - chords & lyrics)


602

Print

Видео «Imagine (Lennon John)»

Видео клипы к песне подбираются автоматически сайтом youtube. Возможны некоторые несоответствия клипов песне.

↑ Спрятать рекламу ↑






Intro
Q=84
4/4
Gtr I
|--3--| |--3--| |--3--| |--3--| |--3--| |-3--| |-3-| |-3-|
S S S S S S S S S S S S S S S S S S S S S S S S
|-----------------------------------------------------------------|
|-17h19p17-15h17p15-14h15p14-12h14p12-10h12p10-8h10p8-7h8p7-5h7p5p|
|-----------------------------------------------------------------|
|-----------------------------------------------------------------|
|-----------------------------------------------------------------|
|-----------------------------------------------------------------|
|
| Gtr II
| |--3--| |--3--| |--3--| |--3--| |--3--| |-3--| |-3-|
| S S S S S S S S S S S S S S S S S S S S S E
|-----------------------------------------------------------------|
|-14h15p14-12h14p12-10h12p10--8h10p=8--7h=8p=7-5h=7p5-3h5p3-2-----|
|-----------------------------------------------------------------|
|-----------------------------------------------------------------|
|-----------------------------------------------------------------|
|-----------------------------------------------------------------|


H S S E E E
|---------------------|
|-3h======5h7--7s=5---|
|---------------------|
|---------5S7-(7)S5-5-|
|---------------------|
|---------------------|
|
| E E E E E E E E
|---------------------|
|-----3---3-------3---|
|-----2---2-------2---|
|---4---4------4----4-|
|---------------------|
|-0-------------------|
W


Verse
H E E E E a Q E E E E E E
|-------------------||---------------------|
|-(3)-------3-------||----------------2----|
|-------------------||---2---2---2-------2-|
|--4--------5p4-2p0-||-2h4-----4---4-(2)---|
|-------------------||---------------------|
|-------------------||---------------------|
|
| E E E E E E E E E E E E E E E E
|-------------------||---------------------|
|-------3---3---3---||----------------2----|
|-------2---2---2---||-------2---2----2----|
|-----4---4---4---4-||-----4---4---4-----4-|
|-------------------||---------------------|
|--0----------------||---0-------0---------|
W H H


Q Q  Q S S S S Q E E Q E E
|------------------------|-------------------|
|-2---0---(0)----0h1h2s3-|--------------2----|
|-----0----0-------------|-2---2---2------2--|
|---0---0-----0----------|---0---4---0-------|
|------------------------|-------------------|
|------------------------|-------------------|
| E E E E E Q. E Q E E Q.
|
| Q Q  Q S S S S E E E E Q E E
|------------------------|-------------------|
|-2---0---(0)----0h1h2s3-|--------------2----|
|-2---0------------------|-2---2---2----2----|
|---0---0-----0----------|---4---4--------4--|
|------------------------|-------------------|
|-5--------5-------------|-0-------0---------|
E E E E E E Q H H


H. S S S S Q E E E E E E
|----------------------|-----------------|
|-0------------0h1h2s3-|-------------2---|
|-0----0---------------|-2---2---2-------|
|----0---0---0---------|---0---4-4-4---4-|
|----------------------|-----------------|
|----------3-----------|-----------------|
| E E E E E E Q E Q E H
|
| H. S S S S E E E E Q E E
|----------------------|-----------------|
|-0------------0h1h2s3-|-------------2---|
|-0----0---------------|-2---2---2---2---|
|----0---0---0---------|---4---4-------4-|
|----------------------|-----------------|
|-5--------5-----------|-0-------0-------|
E E E E E E Q H H


Q Q  Q S S S S E E E E Q E E
|-----------------------|------------------|
|-2---0---(0)---0h1h2s3-|--------------2---|
|----------0------------|-2---2---2------2-|
|---2---0-----0---------|---4---4---0------|
|-----------------------|------------------|
|-----------------------|------------------|
| E E E E E E Q H E Q.
|
| Q Q  Q S S S S E E E E Q E E
|-----------------------|------------------|
|-2---0---(0)---0h1h2s3-|--------------2---|
|-2---0-----------------|-2---2---2----2---|
|---0---0-----0---------|---4---4--------4-|
|-----------------------|------------------|
|-5--------5------------|-0-------0--------|
E E E E E E Q H H


~
W E a E E E Q Q
|----------------------|----------------2---|
|--------------0-------|--------3---3-------|
|------0---------(2)---|-0-2s4----4---------|
|----0---0---0-------0-|-0------------------|
|----------------------|--------------------|
|-3--------2-----------|-3----------2-------|
| E E E E E E S S E H H
|
| Q. E H E E E E Q Q
|----------------------|----------------2---|
|-0------0-------------|-----0--3-0-3---3---|
|-0----0-------2-------|-----2----------2---|
|----0-------0---------|-----0--------0---0-|
|----------------------|--------------------|
|-5--------4---------4-|-5----------4-------|
E E E E E E E E E Q. E E E E


E E E E  E E E E Q. E Q E E
|-0-----------------|-0----------------|
|---3p0-------0-3-0-|-2------2-2---3---|
|-------0-(0)-------|--------2-2---4---|
|----------0--------|----------------0-|
|-------------------|------------------|
|-0-----------------|------------------|
| H H
|
| E E E E  E E E E Q. E E E Q
|-0-----------------|------------------|
|---3p0---------3p0-|-2------2-2---3---|
|-------0-(0)-0-----|------0---0---4---|
|-------------------|----2-----2---4---|
|-------------------|-0--------0-------|
|-2--------0--------|------------------|
H H E E Q H


Verse
~
H E Q S S H E a E E E
|------------5--------||---------------------|
|---5------7------7s5p||=3-----------------2-|
|---6-----------------||-----------------2---|
|---5-----------------||-------------2s4-----|
|---------------------||---------------------|
|---------------------||---------------------|
|
| a H a E Q a E E E E E  E E E E
|------------5--------||---------------------|
|-4s5----5s7----7s5---||-3-------------------|
|-5S6-----------------||-----2-----------2---|
|-4S5-----------------||---4---4-(4)---4---4-|
|---0-----------------||---------------------|
|---------------------||-0--------0----------|
H H H H


~~~~~~~~
E E Q  H E a E E E E a Q E
|-------------------|-----------------------|
|-2-3---------------|-----------------------|
|-----4---(4)-------|-------2---2-4s6---4---|
|-------------------|---2s4---4-------------|
|-------------------|-----------------------|
|-------------------|-----------------------|
|
| E E E E E E E E E E E E E E E E
|-------------------|-----------------------|
|-------------------|-----------------------|
|-2---2----0----0---|-------2---2-----2-----|
|---0---0-----0---0-|-----4---4-----4---4---|
|-------------------|-----------------------|
|-5--------5--------|-0---------0-----------|
H H H H


~~~~~~~~~~~~ ~~
H  Q. E E a E E E Q. a E
|-----------------------|----------------------|
|-----------------------|----------------------|
|-4-------(4)-----------|-------2---2------4s6-|
|-----------------------|---2s4---4------------|
|-----------------------|----------------------|
|-----------------------|----------------------|
|
| E E E E  E E S S S S E E E E E E E E
|-----------------------|----------------------|
|---------------0h1h2s3-|----------------------|
|-0---0-----------------|-2-----2---2----2-----|
|---0---0-(0)-0---------|-----4---4----4-----4-|
|-----------------------|----------------------|
|-5--------5------------|-0---------0----------|
H Q Q H H


~~ ~
Q. E H E a E E E E a Q.
|----------------------|-----------------------|
|----------------------|-----------------------|
|-6------4-4-----------|-------2---2-4s6-------|
|----------------------|---2s4---4-------------|
|----------------------|-----------------------|
|----------------------|-----------------------|
|
| E E E E E E S S S S E E E E E E E E
|----------------------|-----------------------|
|--------------0h1h2s3-|-----------------------|
|-2----2---0-----------|-2-----2---2------2----|
|----0---0---0---------|-----4---4-----4----4--|
|----------------------|-----------------------|
|-5--------5-----------|-0---------0-----------|
H Q Q H H


~ ~
W E a E E E Q Q
|-----------------|--------------------|
|-----------------|--------3---3s==7---|
|-4---------------|---2s4----4---------|
|-----------------|--------------------|
|-----------------|--------------------|
|-----------------|--------------------|
|
| E E E E E E E E Q E E Q Q
|-----------------|----------------2---|
|-------0---------|--------3---3-------|
|-----0-------2---|----------4-----2---|
|---0-------0---0-|-----0--------0---0-|
|-----------------|--------------------|
|-5-------4-------|-5----------4-------|
H H E Q. E E E E


~~~~~~~~
E E Q  Q. E Q. E E a E E a E
|-------------------|-------------------------|
|-7-8---------------|-------------------------|
|-----9---(9)-----7p|=6---------6-----7-------|
|-------------------|-------------------------|
|-------------------|--------7----8s9---9s10--|
|-------------------|-------------------------|
|
| E E E E  E E E E Q. E E E Q
|-0-----------------|-------------------------|
|---3p0-------0-3p0-|-2------2-^2-----3-------|
|-------0-(0)-------|------0---^0-----0-------|
|-------------------|----2-----^2-----4-------|
|-------------------|-0--------^0-----2-------|
|-2--------0--------|-------------------------|
H H E E Q E E Q


Chorus
~~
Q. E a E Q S S Q. E E S S E E
|----------------------||---------3---2-----------|
|---------2s3h5----3p2-||-----------5-----5p==3h5-|
|-9--------------------||-4-----------------------|
|----------------------||-------------------------|
|----------------------||-------------------------|
|----------------------||-------------------------|
|
| |--3--|
| Q Q a E Q a E Q E E E S S S E E
|-------------5--------||-------------------------|
|-5-------5h7----7s5---||-3-----0-3-2-2h3p==2-0-2-|
|----------------------||-------------0-----------|
|-5--------------------||----0--------2-----------|
|-0--------------------||-----------0-------------|
|----------------------||-5-----------------------|
Q Q H E Q. E Q.


E E E E E E E E Q E E E S S E E
|-2---------------|--------3---2-----------|
|-----3-------2-5-|-3----3---5-----5p==3h5-|
|---2---2---3-----|------------------------|
|---------4-------|------------------------|
|-----------------|------------------------|
|-----------------|------------------------|
|
| |--3--|
| Q Q H Q E E E S S S E E
|-----------------|------------------------|
|-3---3-----------|--------3-2-2h3p==2-0-0-|
|-----2-------3---|------4-----0-----------|
|---4---4---2-----|---0--------2-----------|
|-----------------|----------0-------------|
|-0-------4-----4-|-5----------------------|
E E E E E E E E E Q. E Q.


E E E S S E E E E Q E E E S S E E
|-2-----------------|--------3---2-------|
|---3-----------2-5-|-3----3---5---5p3h5-|
|-----2-------3-----|--------------------|
|-------3h4-2-------|--------------------|
|-------------------|--------------------|
|-------------------|--------------------|
|
| Q Q H Q E E E S S E E
|-------------------|--------------------|
|-----3-------------|--------3-2-3p2-0-2-|
|-----2-------3-3---|------4-------------|
|-4-----4-----------|---0--------2-------|
|-------------------|----------0-------0-|
|-0---------4-----4-|-5------------------|
Q E E E E E E E Q. E Q E


E E E E S S S S S S S S Q. E a E S S E E
|-2---------------3-2-----|---------3-3s5-7-5-------|
|-----3-------2-5-----5-3-|-------------------8s7s==|
|---2---2---3-------------|-4-----------------------|
|---------4---------------|-------------------------|
|-------------------------|-------------------------|
|-------------------------|-------------------------|
|
| Q Q H Q E E E S S E E
|-------------------------|-------------------------|
|-3---3-------------------|---------3---5-7p5---5---|
|-----2-----------3-------|-------4-----------7-----|
|---4---4-----2-----------|----0----------5---------|
|-------------------------|-------------0-----------|
|-0-------4-----------4---|-5-----------------------|
E E E E E E E E E Q. E Q.


Verse
~~~~~~~ ~~~
E E Q  H  E a E E E Q Q
|---------------------||------------------------9---|
|---10-7-7--(7)-------||-(7)-------10----10----10---|
|---------------------||-----9s11-----11------------|
|---------------------||----------------------------|
|---------------------||----------------------------|
|---------------------||----------------------------|
|
| a E E Q  Q. E Q E E Q. E
|----5----------------||------------2-----2---------|
|-5h=7-7-7--(7)-------||---------------3------------|
|------7-7--(7)-------||--2---------------------2---|
|-----------------0---||--------4------------4----0-|
|---------------0---0-||----------------------------|
|----0------(0)-------||--0---------------0---------|
H  E E E E E Q. E E E E


~~~~~~~
E E E E  H Q S S S S Q S E.
|-9-------------------------|----------------------------------|
|---10s12-12-(12)-----------|------10----------10h==12s14------|
|---------------------------|---------12-11h12-----------------|
|---------------------------|----------------------------------|
|---------------------------|----------------------------------|
|---------------------------|----------------------------------|
|
| H Q S S S S Q E E Q Q
|-5------------3------------|------^2-----------2----5---------|
|-------0---------0-0h1h2s3-|------^3-----3----------3---------|
|-------0---------0---------|--2---^2--------------------------|
|----0-----0----------------|----4----------------4--------0---|
|---------------------------|----------------------------------|
|-5------------5------------|-^0----------------0--------------|
E E E E E E Q E E Q E E E E


~~~ ~~~
H. Q E a E E E Q. E
|-----------------------|-----------------------9-|
|-12--------------------|--------10----10------10-|
|-----------------------|---9s11----11------------|
|-----------------------|-------------------------|
|-----------------------|-------------------------|
|-----------------------|-------------------------|
|
| H. S S S S Q E E Q Q
|--3--------------------|---------2-----2----5----|
|-------0-------0h1h2s3-|------------3------------|
|-------0---------------|-2-------2--2-------2----|
|-----0---0---0---------|------------------4----0-|
|-----------------------|-------------------------|
|--5--------5-----------|-0-------------0---------|
E E E E E E Q Q E E E E E E


~~~~~~~~~ ~~~~~~~~~
E E Q  E E E E Q  S S S S Q Q
|-9-10------------------------|------------------------------------|
|------12---(12)-10-----------|-10---(10)----------10---12b14======|
|-------------------12---11---|-----------12-11h12-----------------|
|-----------------------------|------------------------------------|
|-----------------------------|------------------------------------|
|-----------------------------|------------------------------------|
|
| H Q S S S S Q E E Q Q
|-5-----------3---------------|--------2------------2--------------|
|-------0---------0--0h1h=2s3-|---------------3----------3---------|
|-------0---------0-----------|--2-----2------2----------2---------|
|----0----0-------------------|----4------------------4--------0---|
|-----------------------------|------------------------------------|
|-5-----------5---------------|--0------------------0--------------|
E E E E E E Q E E E E E E E E


~~~~~~~~~~
Q Q  H E a E E E Q. a a E
|--------------------------|-----------------------2h|
|-(12)r==(12)---(12)-------|--------3---3--------2---|
|--------------------------|---2s4----4--------4-----|
|--------------------------|-------------------------|
|--------------------------|-------------------------|
|--------------------------|-------------------------|
|
| Q. E Q Q Q E E Q Q
|--------------------------|-----------------2-------|
|---0---------0--------0---|--------3---3------------|
|---0------0-----------2---|----------4------2-------|
|------0-------------0-----|-----0---------0-------0-|
|--------------------------|-------------------------|
|---5-------------4------4-|-5----------4------------|
E E E E E E E E E Q. E E E E


E E E E E E E E Q. E E E E E
|-5-3p2----3p=2-----|-0-----------------|
|-------5-------5-3-|-2------2-2s3-3s5--|
|-------------------|--------2-2S4-4S6--|
|-------------------|-------------------|
|-------------------|-------------------|
|-------------------|-------------------|
|
| E E E E  E E E E Q. E E E Q
|-0-----------------|-------------------|
|---3p0---------3p0-|-2------2-2---3----|
|-------0-(0)-0-----|------0---0---4----|
|-------------------|----2-----2---4----|
|-------------------|-0--------0--------|
|-2--------0--------|-------------------|
H H E E Q H


Chorus
~~
H a E Q S S Q E E E S S E E
|-------------------||--------7----7------------|
|-5--------5--------||------8---10-----10---8p7s|
|-6------6s7s9--7p6-||--------------------------|
|-------------------||-9------------------------|
|-------------------||--------------------------|
|-------------------||--------------------------|
|
| |--3---|
| Q. E a E Q S S Q E E E S S S E E
|------------5------||--------------------------|
|-5------5s7----7s5-||-3------3--2-2h3p===2-0-2-|
|-6-----------------||------4------0------------|
|-5-----------------||---0---------2------------|
|-0-----------------||-----------0--------------|
|-------------------||-5------------------------|
H H E Q. E Q.


~~~~~~~~~
E Q. H Q E E E S S E E
|--------------------|--------7----7-------------|
|-10-10-----11-------|------8---10-----10---8p7--|
|--------------------|---------------------------|
|--------------------|---------------------------|
|--------------------|---------------------------|
|--------------------|---------------------------|
|
| |--3---|
| Q Q H Q E E E S S S E E
|--------------------|---------------------------|
|--3-----3-----------|--------3--2-2h3p===2p0-0--|
|--------2-------3---|------4------0-------------|
|-----4--------2-----|---0---------2-------------|
|--------------------|-----------0---------------|
|--0---------4-----4-|-5-------------------------|
E E Q E E E E E Q. E Q.


~~~~~~~~~~
a H H Q a E E E S S E E
|--------------------|----------7----7------------|
|-7s10h=====11-------|------5s8---10-----10---8p7s|
|--------------------|----------------------------|
|--------------------|----------------------------|
|--------------------|----------------------------|
|--------------------|----------------------------|
|
| |--3---|
| Q Q H Q E E E S S S E E
|--------------------|----------------------------|
|--------3-----------|-3--------3--2-2h3p===2-0-2-|
|--------2-------3---|--------4------0------------|
|----4-4-------2-----|---0-----------2------------|
|--------------------|-------------0--------------|
|----0-------4-----4-|-5--------------------------|
E E Q E E E E E Q. E Q.


~~
E Q  E S S S S S S S S Q a E E a E S S E E
|-------------------------------|------------------------|
|-10-10---(10)⁄---------8p7-----|----------------7-------|
|-------------------6-9-----9p7-|----------7-7s9---9p7-9-|
|-----------------8-------------|-9----7s9---------------|
|---------------9---------------|------------------------|
|-------------------------------|------------------------|
|
| Q Q H Q E E E S S E E
|-------------------------------|------------------------|
|--3----3-----------------------|----------3---5-7p5---5-|
|-------2---------------3-------|--------4-------0---7---|
|-----4-----4-------2-----------|---0--------------------|
|-------------------------------|--------------0---------|
|--0------------4-----------4---|-5----------------------|
E E E E E E E E E Q. E Q.


H.=H
W W
|---------------------------|----------------------|
|-5s7-----------------------|--------------7-------|
|-------7---6-------------6-|----------7-9---9p7h9-|
|-------------8---------8---|-9----7s9-------------|
|---------------9-8-7h9-----|----------------------|
|---------------------------|----------------------|
| a Q Q S S S S S S S S Q a E E E S S E E
|
| a E E E E H Q E E E S S E E
|---------------------------|----------------------|
|-5h7-----------------------|----------3-5-7p5---5-|
|-----7-7-----------3-------|--------4---------7---|
|---------------2-----------|---0----------5-------|
|---------------------------|------------0---------|
|---0-------4-----------4---|-5--------------------|
H E E E E E Q. E Q.


Verse
~~~
W  E a E E E Q. E
|-----------------||------------------------9-|
|---7-------------||----------10----10-----10-|
|-----7-7--(7)----||-(7)-9s11----11-----------|
|-----------------||--------------------------|
|-----------------||--------------------------|
|-----------------||--------------------------|
| E E Q  H
|
| a E E Q  H E E E E Q Q
|---5-------------||--------------------------|
|-5h7-7-7--(7)----||---------------------3----|
|-6h7-7-7--(7)----||-----------2-----2---2----|
|-----------------||--------4-----4---------4-|
|-----------------||--------------------------|
|---0-------------||--0--------------0--------|
W H Q E E


~~~~~~~
E E E E  H  E E S S S S E E  Q
|-9-------------------------|-------------------------------------|
|---10s12-12-(12)-----------|-(12)---10----------10-12b14==(12)r==|
|---------------------------|-----------12-11h12------------------|
|---------------------------|-------------------------------------|
|---------------------------|-------------------------------------|
|---------------------------|-------------------------------------|
|
| H Q S S S S Q E E E E E E
|---------------------------|-------------------------------------|
|-2--------2---0----0h1h2s3-|-------------------------------------|
|-2-----2------0------------|---2-----2-----------2----------2----|
|----0------------0---------|---------------4--------4----------4-|
|---------------------------|-------------------------------------|
|-5------------5------------|---0---------------------------------|
E E E E E E Q W


~~~~ ~~~
 W E a E E E Q. a E
|--------------------------|-------------------------9--|
|-(12)---------------------|--------10----10------10----|
|--------------------------|---9s11----11---------------|
|--------------------------|----------------------------|
|--------------------------|----------------------------|
|--------------------------|----------------------------|
|
| E E E E  E E S S S S E E E E E E E E
|--------------------------|----------------------------|
|------------------0h1h2s3-|----------------------------|
|---0----0-----------------|---------2-----2----2-------|
|------0---0-(0)-0---------|------4-----4-----4------4--|
|--------------------------|----------------------------|
|---5---------5------------|-0-------------0------------|
H Q Q H H


~~
E E E E E E E E Q  S S S S E a Q E
|-9-12-10p9----10-9--------|-------------------------------10-|
|-----------12--------12---|-10---(10)----------10-12s14------|
|--------------------------|-----------12p11h12---------------|
|--------------------------|----------------------------------|
|--------------------------|----------------------------------|
|--------------------------|----------------------------------|
|
| E E Q E E S S S S E E E E E E E E
|--------------------------|----------------------------------|
|-----------------0h1h=2s3-|----------------------------------|
|-2-----2----0-------------|--2-----2------------2-------2----|
|----0----------0----------|----4----------4-----------4----4-|
|--------------------------|----------------------------------|
|-5----------5-------------|--0------------------0------------|
H Q Q H H


~~~
H.  Q E a E E E Q E. S
|-------------------------|---------------------|
|-12--------------(12)⁄---|--------3---3s==7----|
|-------------------------|---2s4----4--------7-|
|-------------------------|---------------------|
|-------------------------|---------------------|
|-------------------------|---------------------|
|
| Q. E  Q Q Q E E Q Q
|-------------------------|----------------2----|
|---------0-(0)-----0-----|--------3---3---3----|
|--0----0-----------2-----|----------4-----2----|
|-----0---------0---------|-----0--------0------|
|-------------------------|---------------------|
|--5---------4----------4-|-5----------4--------|
E E Q E E E E E Q. E E Q


E E E E E E E E Q. E E E E E H E Q S S
|--------------------|------------------|--------------------||
|-10-8p7----8p=7-----|--------------3s5-|-5--------7h10------||
|--------9-------9-7-|-6------6-6p4-4S6-|-6--------7h=9--7p6-||
|--------------------|------------------|--------------------||
|--------------------|------------------|--------------------||
|--------------------|------------------|--------------------||
|
| E E E E  E E E E Q. E E E Q Q. E a E Q S S
|--0-----------------|------------------|-------------5------||
|----3p0---------3p0-|-2------2-2---3---|-5------5s7-----7s5-||
|--------0-(0)-0-----|------0---0---0---|-6------------------||
|--------------------|----2-----2---4---|-5------------------||
|--------------------|-0--------0---0---|-0------------------||
|--2--------0--------|------------------|--------------------||
H H E E Q Q Q H H


Chorus
~~~
Q E E E S S E E E Q. Q.  E
|--------7----7------------|--------------------------|
|------8---10-----10---8-7s|=10-10-----11------(11)⁄--|
|--------------------------|--------------------------|
|-9------------------------|--------------------------|
|--------------------------|--------------------------|
|--------------------------|--------------------------|
|
| |--3---|
| Q E E E S S S E E Q Q H
|--------------------------|--------------------------|
|-3------3--2-2h3p===2-0-2-|--3-----3-----------------|
|------4------0------------|--------2--------3--------|
|---0---------2------------|-----4---------2-----2----|
|-----------0--------------|--------------------------|
|-5------------------------|--0---------4-------------|
E Q. E Q. E E Q E E E E


~~
Q E E E S S E E a H H
|--------7----7------------|--------------------|
|------8---10-----10---8p7-|-8s10------11-------|
|--------------------------|--------------------|
|--------------------------|--------------------|
|--------------------------|--------------------|
|--------------------------|--------------------|
|
| |--3---|
| Q E E E S S S E E Q Q H
|--------------------------|--------------------|
|--------3--2-2h3p===2p0-0-|--------3-----------|
|------4------0------------|--------2-------3---|
|---0---------2------------|----4-4-------2-----|
|-----------0--------------|--------------------|
|-5------------------------|----0-------4-----4-|
E Q. E Q. E E Q E E E E


Q E E E S S E E E E E E E E E E Q E E E S S E E
|--------7----7--------|------------------|--------------7---------|
|------8---10---10-8p7s|=10-8p7-----------|-------8-8s10---10-8p7s=|
|----------------------|--------9-7p6-----|------------------------|
|----------------------|--------------8---|------------------------|
|----------------------|----------------9-|-10---------------------|
|----------------------|------------------|------------------------|
|
| Q E E E S S E E Q Q H Q E E E S S E E
|----------------------|------------------|------------------------|
|--------3--2-3p=2-0-2-|--3---3-----------|---------3--5-7p=5---5--|
|------4------0------0-|------2-------3---|-------4-----------7----|
|---0---------2--------|----4---4---2-----|----0---------5---------|
|-----------0----------|------------------|------------0-----------|
|-5--------------------|--0-------4-----4-|--5---------------------|
E Q. E Q E E E E E E E E E E Q. E Q.


H.=H
~ ~
E E Q S S S S S S S S Q E E a E S S E E
|----------------------------|------------------------|
|---10-7-7---7h8p7h8p7-------|----------------7-------|
|----------------------9-7p6-|--------7-7h=9----9p7h9-|
|----------------------------|-9----9-----------------|
|----------------------------|------------------------|
|----------------------------|------------------------|
|
| a E E E E H Q E E E S S E E
|----------------------------|------------------------|
|-5h=7-----------------------|--------3----5--7p5---5-|
|-6h=7-7-7-----------3-------|------4-----(6)-----7---|
|------0-0-------2-----------|---0------------5-------|
|----------------------------|-------------0----------|
|----0-------4-----------4---|-5----------------------|
E E Q E E E E E Q. E Q.


H.=H
3/4 4/4
~~
a E E H a E E E E E E E E W
|-------------|--------------------|-------*|
|-7h10p7-7----|-----------7---10---|-------*|
|-7h=9p7-7----|-------7s9---7----9s|=11----*|
|-------------|-----7--------------|-------*|
|-------------|-7s9----------------|-------*|
|-------------|--------------------|-------*|
|
| a E E H E E E E E E E E W
|-------------|----------------5---|-^5----*|
|-5h=7--------|-------------3--5h7-|-^7----*|
|------7-7----|-----------2----6h7-|-^7----*|
|-------------|-------2h4----------|-------*|
|-------------|-----0--------------|-------*|
|----0--------|---0----------------|--0----*|


Тональность:

Это должно быть в ТОП-листе! - Топ-лист композиций



Назад
Рекомендуем посмотреть другие песни исполнителя «Lennon John»:

  • Комменты Fb ()
  • Комменты ВК



Добавить в Избранное Браузера
Сохранить здесь Очистить


x

0


+
-

+
-

-

Авторизация





Зарегистрироваться

M

Дата и время

  • 12:13:06
     

Социальные ссылки


Наши приложения

  • Muzbank App Play Market
  • Muzbank Amazon App