MUZBANK


МУЗЫКАЛЬНО-ИНФОРМАЦИОННЫЙ БАНК





LLennon John • My Mummys Dead (аккорды и текст - chords & lyrics)


508

Print

Видео «My Mummys Dead (Lennon John)»

Видео клипы к песне подбираются автоматически сайтом youtube. Возможны некоторые несоответствия клипов песне.

↑ Спрятать рекламу ↑





E|---0h2----2----0----0----0h2----2---------2-----0h2----2-|
B|----------3---------3-----------3---------3------------3-|
G|----------2---------2-----------2---------2------------2-|
D|---0------0---------0----0------0---------0-----0------0-|
A|---------------0---------------------0-------------------|
E|---------------------------------------------------------|

E|---0----0----0h2----2---------2-----0h2----2----5----5-|
B|--------3-----------3---------3------------3---------3-|
G|--------2-----------2---------2------------2---------2-|
D|--------0----0------0---------0-----0------0----0----0-|
A|---0---------------------0-----------------------------|
E|-------------------------------------------------------|

E|---7----7----5----5----0h2----2----0----0----0h2----2-|
B|--------8---------3-----------3---------3-----------3-|
G|--------7---------2-----------2---------2-----------2-|
D|---0----0----0----0----0------0---------0----0------0-|
A|-----------------------------------0------------------|
E|------------------------------------------------------|

E|--------2-------|
B|--------3-------|
G|--------2-----o-|
D|--------0-----o-|
A|---0------------|
E|----------------|

My mummy's dead
I can't get it through my head
Thought it's been so many years
My mummy's dead

I can't explain
So much pain
I could never show it
My mummy's dead


Тональность:

Это должно быть в ТОП-листе! - Топ-лист композиций



Назад
Рекомендуем посмотреть другие песни исполнителя «Lennon John»:

  • Комменты Fb ()
  • Комменты ВК



Добавить в Избранное Браузера
Сохранить здесь Очистить


x

0


+
-

+
-

-

Авторизация





Зарегистрироваться

M

Дата и время

  • 18:24:42
     

Социальные ссылки


Наши приложения

  • Muzbank App Play Market
  • Muzbank Amazon App