MUZBANK


МУЗЫКАЛЬНО-ИНФОРМАЦИОННЫЙ БАНК





LLennon John • Out Of The Blue (аккорды и текст - chords & lyrics)


454

Print

Видео «Out Of The Blue (Lennon John)»

Видео клипы к песне подбираются автоматически сайтом youtube. Возможны некоторые несоответствия клипов песне.

↑ Спрятать рекламу ↑






G A Bm F#
| | | | | | | |
E||--------------------------|--5-------2-----------------|
B||--0--------0--2--------2s-|s(7)--7-s(3)-3--3-----2-----|
G||--------0-----------2-----|-------------------4-----3--|
D||-----0-----------2--------|--0-------------------------|
A||--------------0-----------|----------1-----2-----------|
E||--3-----------------------|----------------------2-----|


G A Cdim
| | | | | | | | |
|------------------------------|--------------0-----------|
|--0-------0-----2--------2----|-----------3-----3--------|
|-------0-------------2--------|--------0-----------0-----|
|-----0-------0-----2-------2--|-----2-----------------2--|
|----------------0------0------|--3-----------------------|
|--3------3--------------------|--------------------------|


Cdim D G
| | | | | | | |
|-----------------------2--|--3----------------------0--|
|-----------3--3-----3-----|-----------0----------------|
|--------0--------2--------|-------0--------3--4--6-----|
|-----2--------0-----------|-----0-------0--------------|
|--3-----------------------|----------------------------|
|--------------------------|--3------3------2--3--5-----|
Out

Bm A F# F# A
| | | | | |--3--| | |
|------------------------------|----------------------0-----|
|--3--------3----2--------0----|-------5--4--3--2-----------|
|-------4-------------2--------|--3----------------3-----2--|
|-----4-------4-----2-------2--|----------------------------|
|--2------2------0------0------|----------------------0-----|
|------------------------------|--2-------------2-----------|
And

G A Bm F#
| | | | | | | |
|------------------------------|--5-------2-----------------|
|--0-------0-----2--------2----|s(7)--7-s(3)-3--3-----2-----|
|-------0-------------2--------|-------------------4-----3--|
|-----0-------0-----2-------2--|--0-------------------------|
|----------------0------0------|----------1-----2-----------|
|--3------3--------------------|----------------------2-----|
Out

G A Cdim
| | | | |
|------------------------------|--0----------------||
|--0--------0----2--------2----|--3----------------||
|-------0-------------2--------|--0----------------||
|-----0-------0-----2-------2--|--2----------------||
|----------------0------0------|--3----------------||
|--3------3--------------------|-------------------||
Out


G F C
Everyday


Dm Em F B Em
For


C D C G B C B Em
Anyway


C D G F#
Out


Bm A F#
And


G A D F#m B#m F#
Out


G A C
Out

Тональность:

Это должно быть в ТОП-листе! - Топ-лист композиций



Назад
Рекомендуем посмотреть другие песни исполнителя «Lennon John»:

  • Комменты Fb ()
  • Комменты ВК



Добавить в Избранное Браузера
Сохранить здесь Очистить


x

0


+
-

+
-

-

Авторизация





Зарегистрироваться

M

Дата и время

  • 18:26:38
     

Социальные ссылки


Наши приложения

  • Muzbank App Play Market
  • Muzbank Amazon App