MUZBANK


МУЗЫКАЛЬНО-ИНФОРМАЦИОННЫЙ БАНК





LLess Than Jake • Look What Happened (аккорды и текст - chords & lyrics)


342

Print

Видео «Look What Happened (Less Than Jake)»

Видео клипы к песне подбираются автоматически сайтом youtube. Возможны некоторые несоответствия клипов песне.

↑ Спрятать рекламу ↑





 


Jason Rousell


Less Than Jake
Look What Happend
Borders and Boundaries

Intro 1
          x1                                              x4
G---------9--*----9------9------9------9------9------9------9------9-------
D------------*------777----66------------------777----66-------------------
A---7--------*---------------------99---------------------------77---------
E------------*-------------------------------------------------------------

Intro 2
         x3
G---------------------------------------------------------------------------
D---------------------------------------------------------------------------
A---7-7--77-------9-9-9-9-9--9---7-7-7-7-7-6--------------------------------
E---------------------------------------------------------------------------

Intro 3
G---------------------------------------------------------------------------
D---6-6-6-6--6--------------------------------------------------------------
A-----------------9-9-9-9--9--7-7-7-7--7--6--4--2--0------------------------
E------------------------------------------------------------0--------------

Intro 4
G---------------------------------------------------------------------------
D---------------------------------------------------------------------------
A--------------------------------------------6-7-6-4-2----------------------
E---0-0-4-0-0-4-0-0-4-0-0-4-0-0-4-0-----------------------------------------

Intro 5
G---------------------------------------------------------------------------
D---------------------------------------------------------------------------
A-------------------------------------7-6-7-6-4-2---------------------------
E---0-0-4-0-0-4-0-0-4-0-0-4-0-----------------------------------------------

Verse1
                 x4
G---------------------------------------------------------------------------
D---------------------------------------------------------------------------
A---------------------------------------------------------------------------
E 

Тональность:

Это должно быть в ТОП-листе! - Топ-лист композиций



Назад
Рекомендуем посмотреть другие песни исполнителя «Less Than Jake»:

  • Комменты Fb ()
  • Комменты ВК



Добавить в Избранное Браузера
Сохранить здесь Очистить


x

0


+
-

+
-

-

Авторизация





Зарегистрироваться

M

Дата и время

  • 11:42:39
     

Социальные ссылки


Наши приложения

  • Muzbank App Play Market
  • Muzbank Amazon App