MUZBANK


МУЗЫКАЛЬНО-ИНФОРМАЦИОННЫЙ БАНК





LLibido • Cicuta (аккорды и текст - chords & lyrics)


572

Print

Видео «Cicuta (Libido)»

Видео клипы к песне подбираются автоматически сайтом youtube. Возможны некоторые несоответствия клипов песне.

↑ Спрятать рекламу ↑





 


!!!(INTRO)

  Bm               Cm                 Bm Bm Bm (rapido)
e--3-------3--------2------2----------3--------------
b--4----------4-----3----------3------4--------------
g--5----5-----------4---4-------------5--------------
d--5----------------4-----------------5--------------
a--3----------------2-----------------3--------------
E--3----------------2-----------------3--------------

RIFF 1
-------------------------------------------------
--8/--8/----6------------8/--8/----6-------------
----------------8---5------------------8---4-----
-------------------------------------------------
-------------------------------------------------
-------------------------------------------------
(se repite varias,  veces hasta q comienzan a cantar)

y la estrofa se toca asi...
   
RIFF 2
   Bm                        Cm
--3--3----xxxxxxxx----------2--2----xxxxxx------------
--4--4----xxxxxxxx----------3--3----xxxxxx------------
--5--5----xxxxxxxx----------4--4----xxxxxx------------
--5--5----xxxxxxxx----------4--4----xxxxxx------------
--3--3----xxxxxxxx----------2--2----xxxxxx------------
--3--3----xxxxxxxx----------2--2----xxxxxx------------
(ESTROFA 1)
ya no me trates mal      me esta sangrando el cuerpo
entiendo por favor       lo q te estoy pidiendo

(ESTROFA 2)
escupes lo que soy       me arrancas las  

Тональность:

Это должно быть в ТОП-листе! - Топ-лист композиций



Назад
Рекомендуем посмотреть другие песни исполнителя «Libido»:

  • Комменты Fb ()
  • Комменты ВК



Добавить в Избранное Браузера
Сохранить здесь Очистить


x

0


+
-

+
-

-

Авторизация





Зарегистрироваться

M

Дата и время

  • 18:25:22
     

Социальные ссылки


Наши приложения

  • Muzbank App Play Market
  • Muzbank Amazon App