MUZBANK


МУЗЫКАЛЬНО-ИНФОРМАЦИОННЫЙ БАНК





LLibido • Como Estas (аккорды и текст - chords & lyrics)


476

Print

Видео «Como Estas (Libido)»

Видео клипы к песне подбираются автоматически сайтом youtube. Возможны некоторые несоответствия клипов песне.

↑ Спрятать рекламу ↑





 


|--------3-----------3----------------3----------3-------
|-----1------1----1------1---------1------1----1------1--
|--------------------------------------------------------
|-----------------------------2--------------------------
|-3------------------------------------------------------
|--------------------------------------------------------

|-------------3--------------3------------------------3-------------3----
|--------3---------3---3----------3-----3-3-3---1--------1---1---------1-
|---0--------------------------------------------------------------------
|------------------------------------------------------------------------
|------------------------------------------------------------------------
|------------------------------------------------------------------------

C                  G         F    C  C*
(Ahhhh)   Como estas ( 

Тональность:

Это должно быть в ТОП-листе! - Топ-лист композиций



Назад
Рекомендуем посмотреть другие песни исполнителя «Libido»:

  • Комменты Fb ()
  • Комменты ВК



Добавить в Избранное Браузера
Сохранить здесь Очистить


x

0


+
-

+
-

-

Авторизация





Зарегистрироваться

M

Дата и время

  • 10:48:25
     

Социальные ссылки


Наши приложения

  • Muzbank App Play Market
  • Muzbank Amazon App