MUZBANK


МУЗЫКАЛЬНО-ИНФОРМАЦИОННЫЙ БАНК





LLibido • Ojos De Angel (аккорды и текст - chords & lyrics)


455

Print

Видео «Ojos De Angel (Libido)»

Видео клипы к песне подбираются автоматически сайтом youtube. Возможны некоторые несоответствия клипов песне.

↑ Спрятать рекламу ↑





 


despues de la bateria...
  Bm  -  D  -  G  -  A  

e----10-------12_10-12_10-----10---(10)--15-15-
B-------12-----------------------12------------
G-11-------11--------------11------------------
D----------------------------------------------
A----------------------------------------------
E----------------------------------------------

e----10-------12_10-12_10-----10---(10)--15-15-
B-------12-----------------------12------------
G-11-------11--------------11------------------
D----------------------------------------------
A----------------------------------------------
E----------------------------------------------
he visto que tiene los ojos de un angel...

  Bm  -  D  -  G  -  A  

e--2-----2-----3-----5-------
B--3-----3-----3-----5-------
G--4-----2-----4-----6-------
D--4-----0-----5-----7-------
A--2-----------5-----7-------
E--------------3-----5-------

he entrado a un lugar prohibido y no puedo salir..

e--7-X-X-X--7-X-X-X--7-X-X-X--7-X-X-X---
B--7-X-X-X--7-X-X-X--7-X-X-X--7-X-X-X---
G--7-X-X-X--7-X-X-X--7-X-X-X--7-X-X-X---
D--9-X-X-X--9-X-X-X--9-X-X-X--9-X-X-X---
A--9-X-X-X--9-X-X-X--9-X-X-X--9-X-X-X---
E--7-X-X-X--7-X-X-X--7-X-X-X--7-X-X-X---

si no es junto a  

Тональность:

Это должно быть в ТОП-листе! - Топ-лист композиций



Назад
Рекомендуем посмотреть другие песни исполнителя «Libido»:

  • Комменты Fb ()
  • Комменты ВК



Добавить в Избранное Браузера
Сохранить здесь Очистить


x

0


+
-

+
-

-

Авторизация





Зарегистрироваться

M

Дата и время

  • 09:09:21
     

Социальные ссылки


Наши приложения

  • Muzbank App Play Market
  • Muzbank Amazon App