MUZBANK


МУЗЫКАЛЬНО-ИНФОРМАЦИОННЫЙ БАНК





LLifehouse • Sick Cycle Carousel (аккорды и текст - chords & lyrics)


491

Print

Видео «Sick Cycle Carousel (Lifehouse)»

Видео клипы к песне подбираются автоматически сайтом youtube. Возможны некоторые несоответствия клипов песне.

↑ Спрятать рекламу ↑






 


Intro and 1-st couplet     
      F        E        Am   G
2|--------|--------|-------|0----|
3|--------|--------|-----2-|--0--|
4|-----3--|-----2--|---2---|----0|
5|---3---3|---2---2|-0-----|-----|
6|-1------|-0------|-------|-----|
      F        E        Am
1|--------|--------|----0-----|   
2|--------|--------|--------1-|
3|--------|--------|-----2-2--|
4|-----3--|-----2--|---2--2---|
5|---3---3|---2---2|-0--------|
6|-1------|-0------|----------|

Solo
4-----9-5--------------|
5|88-77-55-3-7-7-------88-77-55-3-7|
 F              E
If shame had a face
                  Am           G
I think it would kind of look like mine
 F             E                 Am
If it had a home would it be my eyes?
 F           E             Am       G        F
Would you believe me if I said I 

Тональность:

Это должно быть в ТОП-листе! - Топ-лист композиций



Назад
Рекомендуем посмотреть другие песни исполнителя «Lifehouse»:

  • Комменты Fb ()
  • Комменты ВК



Добавить в Избранное Браузера
Сохранить здесь Очистить


x

0


+
-

+
-

-

Авторизация





Зарегистрироваться

M

Дата и время

  • 11:19:24
     

Социальные ссылки


Наши приложения

  • Muzbank App Play Market
  • Muzbank Amazon App