MUZBANK


МУЗЫКАЛЬНО-ИНФОРМАЦИОННЫЙ БАНК





LLifehouse • Take Me Away Acoustic (аккорды и текст - chords & lyrics)


651

Print

Видео «Take Me Away Acoustic (Lifehouse)»

Видео клипы к песне подбираются автоматически сайтом youtube. Возможны некоторые несоответствия клипов песне.

↑ Спрятать рекламу ↑





 


Artist: Lifehouse
Title: Take Me Away (Acoustic)
Tabbed by: Dean Wilby - dean_wilby@hotmail.com

Chords: 
      E    A5   C#m7 C#m7(2)  Bsus4  Bsus4(2)  Ab5   B5   C#5

E|----0----0------0----0--------0-------0-------x----x-----x--
B|----0----0------0----0--------0-------0-------x----x-----x--
G|----1----2------6----6--------4-------4-------x----4-----6--
D|----2----2------6----6--------4-------4-------6----4-----6--
A|----2----0------4----4--------2-------2-------6----2-----4--
E|----0----0------x----4--------x-------2-------4----2-----4--


Rhy.Fig.1
    E                  A5                  C#m7               A5
E|---------0------------0----0--------------0----0------------0----0------------|
B|-----------0----------0------0------0-----0------0-----0----0------0----------|
G|------1--------1------2--------2----------6--------6--------2----------1------|
D|----2--------2---2----2-------------------6----------6------2--------2---2----|
A|--2-------------------0------------0------4-----------------0 

Тональность:

Это должно быть в ТОП-листе! - Топ-лист композиций



Назад
Рекомендуем посмотреть другие песни исполнителя «Lifehouse»:

  • Комменты Fb ()
  • Комменты ВК



Добавить в Избранное Браузера
Сохранить здесь Очистить


x

0


+
-

+
-

-

Авторизация





Зарегистрироваться

M

Дата и время

  • 16:10:26
     

Социальные ссылки


Наши приложения

  • Muzbank App Play Market
  • Muzbank Amazon App