MUZBANK


МУЗЫКАЛЬНО-ИНФОРМАЦИОННЫЙ БАНК





LLimp Bizkit • Behind Blue Eyes (аккорды и текст - chords & lyrics)


2336

Print

Видео «Behind Blue Eyes (Limp Bizkit)»

Видео клипы к песне подбираются автоматически сайтом youtube. Возможны некоторые несоответствия клипов песне.

↑ Спрятать рекламу ↑






intro
E-------0-----------0-----------0------------0---------------0--------------0-------
B------0-0---------3-3-------3----3-3-----3----3-3-------3-----3-3-------3----3-3---
G---------0-----------0-----2-2----2-----2-2----2---------0-----0---------0----0----
D----2-----2-----0-----0---0----------- 0--------------2---------------2------------
A---2-----------2-------------------------------------3---------------3-------------
E--0-----------3--------------------------------------------------------------------

--------0---------------0-------
-----0----0-0--------0----0-0---
------2----2----------2----2----
---2---------------2------------
--0---------------0-------------
--------------------------------



verse 1
E-------0-----------0-----------0------------0---------------0--------------0-------
B------0-0---------3-3-------3----3-3-----3----3-3-------3-----3-3-------3----3-3---
G---------0-----------0-----2-2----2-----2-2----2---------0-----0---------0----0----
D----2-----------0---------0----------- 0--------------2---------------2------------
A---2-----------2-------------------------------------3---------------3-------------
E--0-----------3--------------------------------------------------------------------


LYRICS
                    
No one knows what it's like, 
to be the bad man,
To be the sad man, 
behind blue eyes
No one knows what it's like 
to be hated,
To be fated, 
to telling only lies
 

[CHORUS]
       C  D                   G
But my dreams, they aren't as empty,
      C          D        E
As my conscience seems to be
       Bm           C
I have hours, only lonely
           D                      A
My love is vengeance that's never free
 


No one knows what it's like 
to feel these feelings
Like I do, and I blame you
No one bites back as hard 
on their anger
None of my pain and woe,
can show through
 

No one knows what its like
to be mistreated, to be defeated
behind ble eyes
no one knows how to say
that they're sorry and don't worry
i'm not telling lies


[chorus] --//--


no one knows what is like
to be a bad man, to be the sad man
behind blue eyes.



---------0-------|---------0-------|---------0-------|---------0-------|------
-----------0-----|-----------3-----|-----3-----3---3-|-----3-----3---3-|------
-------0-----0---|-------0-----0---|---2---2-----2---|---2---2-----2---|------
-----2-----------|-----0---------0-|-0---------------|-0---------------|---2--
---2-----------2-|---2-------------|-----------------|-----------------|-3----
-0---------------|-3---------------|-----------------|-----------------|------
Intro:

-----0-------|---------0-------|---------0-------|---------0-------|----------
-3-----3---3-|-----3-----3---3-|-----0-----0---0-|-----0-----0---0-|----------
-------------|-----------------|-----------------|-----------------|----------
---2-----2---|---2---2-----2---|---2---2-----2---|---2---2-----2---|----------
-------------|-3---------------|-0---------------|-0---------------|----------
-------------|-----------------|-----------------|-----------------|----------


---------0-------|---------0-------|---------0-------|---------0-------|------
-----------0-----|-----------3-----|-----3-----3---3-|-----3-----3---3-|------
-------0-----0---|-------0-----0---|---2---2-----2---|---2---2-----2---|------
-----2-----------|-----0---------0-|-0---------------|-0---------------|---2--
---2-----------2-|---2-------------|-----------------|-----------------|-3----
-0---------------|-3---------------|-----------------|-----------------|------
Verse 1:

-----0-------|---------0-------|-----------------|-----------------|----------
-3-----3---3-|-----3-----3-----|-----------------|-----------------|----------
-------------|---------------22|-2---4-2---------|-----------------|----------
---2-----2---|---2---2-----2-22|-2---2-2---------|-----------------|----------
-------------|-3-------------00|-0---0-0---------|-----------------|----------
-------------|-----------------|-----------------|-----------------|----------
(2x)

-------|--x--|--2--|--3--|--3--|--3--|--2--|-----------------|----------------
-------|--3--|--3--|--3--|--3--|--3--|--3--|-----------------|----------------
-------|--0--|--2--|--0--|--0--|--0--|--2--|-1-----111-2---1-|---1---2-2-1----
-------|--2--|--0--|--0--|--0--|--2--|--0--|-2-----222-2---2-|---2---2-2-2----
-------|--3--|-----|--2--|--2--|--3--|-----|-2-----222-2---2-|---2---2-2-2----
-------|-----|-----|--3--|--3--|-----|-----|-0-----000-0---0-|---0---0-0-0----
Chorus:Cadd9 D G G Cadd9 D

---|--2--|--2--|--3--|--3--|--2--|--2--|--0--|--0--|--0--|--0--|--------------
---|--3--|--3--|--3--|--3--|--3--|--3--|--0--|--0--|--0--|--0--|--------------
-1-|--4--|--4--|--5--|--5--|--2--|--2--|--2--|--2--|--2--|--2--|--------------
-2-|--4--|--4--|--5--|--5--|--0--|--0--|--2--|--2--|--2--|--2--|--------------
-2-|--2--|--2--|--3--|--3--|-----|-----|--0--|--0--|--0--|--0--|--------------
-0-|--2--|--2--|--3--|--3--|-----|-----|-----|-----|-----|-----|--------------
Bm/F# Bm/F# Cadd9 Cadd9 D D A A A A

---------0-------|---------0-------|---------0-------|---------0-------|------
-----------0-----|-----------3-----|-----3-----3---3-|-----3-----3---3-|------
-------0-----0---|-------0-----0---|---2---2-----2---|---2---2-----2---|------
-----2-----------|-----0---------0-|-0---------------|-0---------------|---2--
---2-----------2-|---2-------------|-----------------|-----------------|-3----
-0---------------|-3---------------|-----------------|-----------------|------
Verse 2:

-----0-------|---------0-------|---------0-------|---------0-------|----------
-3-----3---3-|-----3-----3---3-|-----0-----0---0-|-----0---------0-|----------
-------------|-----------------|-----------------|-----------------|----------
---2-----2---|---2---2-----2---|---2---2-----2---|---2---2-----2---|----------
-------------|-3---------------|-0---------------|-0---------------|----------
-------------|-----------------|-----------------|-----------------|----------
(2x)

-------|--3--|--2--|--3--|--3--|--3--|--2--|-----------------|----------------
-------|--3--|--3--|--3--|--3--|--3--|--3--|-----------------|----------------
-------|--0--|--2--|--0--|--0--|--0--|--2--|-1-----111-2---1-|---1---2-2-1----
-------|--2--|--0--|--0--|--0--|--2--|--0--|-2-----222-2---2-|---2---2-2-2----
-------|--3--|-----|--2--|--2--|--3--|-----|-0-----222-2---2-|---2---2-2-2----
-------|-----|-----|--3--|--3--|-----|-----|-0-----000-0---0-|---0---0-0-0----
Chorus:Cadd9 D G G Cadd9 D

---|--2--|--2--|--3--|--3--|--2--|--2--|--0--|--0--|--0--|--0--|--------------
---|--3--|--3--|--3--|--3--|--3--|--3--|--0--|--0--|--0--|--0--|--------------
-1-|--4--|--4--|--5--|--5--|--2--|--2--|--2--|--2--|--2--|--2--|--------------
-2-|--4--|--4--|--5--|--5--|--0--|--0--|--2--|--2--|--2--|--2--|--------------
-2-|--2--|--2--|--3--|--3--|-----|-----|--0--|--0--|--0--|--0--|--------------
-0-|--2--|--2--|--3--|--3--|-----|-----|-----|-----|-----|-----|--------------
Bm/F# Bm/F# Cadd9 Cadd9 D D A A A A

---------0-------|---------0-------|---------0-------|---------0-------|------
-----------0-----|-----------3-----|-----3-----3---3-|-----3-----3---3-|------
-------0-----0---|-------0-----0---|---2---2-----2---|---2---2-----2---|------
-----2-----------|-----0---------0-|-0---------------|-0---------------|---2--
---2-----------2-|---2-------------|-----------------|-----------------|-3----
-0---------------|-3---------------|-----------------|-----------------|------
Interlude:

-----0-------|---------0-------|---------0-------|---------0-------|----------
-3-----3---3-|-----3-----3---3-|-----0-----0---0-|-----0-----0---0-|----------
-------------|-----------------|-----------------|-----------------|----------
---2-----2---|---2---2-----2---|---2---2-----2---|---2---2-----2---|----------
-------------|-3---------------|-0---------------|-0---------------|----------
-------------|-----------------|-----------------|-----------------|----------
(2x)

---------0-------|---------0-------|---------0-------|---------0-------|------
-----------0-----|-----------3-----|-----3-----3---3-|-----3-----3---3-|------
-------0-----0---|-------0-----0---|---2---3-----2---|---2---2-----2---|------
-----2-----------|-----0---------0-|-0---------------|-0---------------|---2--
---2-----------2-|---2-------------|-----------------|-----------------|-3----
-0---------------|-3---------------|-----------------|-----------------|------
Verse 3:

-----0-------|---------0-------|---------0-------|---------0-------|----------
-3-----3---3-|-----3-----3---3-|-----0-----0---0-|-----0-----0---0-|----------
-------------|-----------------|-----------------|-----------------|----------
---2-----2---|---2---2-----2---|---2---2-----2---|---2---2-----2---|----------
-------------|-3---------------|-0---------------|-0---------------|----------
-------------|-----------------|-----------------|-----------------|----------
(2x)

-------|--3--|--2--|--3--|--3--|--3--|--2--|-----------------|----------------
-------|--3--|--3--|--3--|--3--|--3--|--3--|-----------------|----------------
-------|--0--|--2--|--0--|--0--|--0--|--2--|-1-----111-2---1-|---1---2-2-1----
-------|--2--|--0--|--0--|--0--|--2--|--0--|-2-----222-2---2-|---2---2-2-2----
-------|--3--|-----|--2--|--2--|--3--|-----|-2-----222-2---2-|---2---2-2-2----
-------|-----|-----|--3--|--3--|-----|-----|-0-----000-0---0-|---0---0-0-0----
Chorus:Cadd9 D G G Cadd9 D

---|--2--|--2--|--3--|--3--|--2--|--2--|--0--|--0--|--0--|--0--|--------------
---|--3--|--3--|--3--|--3--|--3--|--3--|--0--|--0--|--0--|--0--|--------------
-1-|--4--|--4--|--5--|--5--|--2--|--2--|--2--|--2--|--2--|--2--|--------------
-2-|--4--|--4--|--5--|--5--|--0--|--0--|--2--|--2--|--2--|--2--|--------------
-2-|--2--|--2--|--3--|--3--|-----|-----|--0--|--0--|--0--|--0--|--------------
-0-|--2--|--2--|--3--|--3--|-----|-----|-----|-----|-----|-----|--------------
Bm/F# Bm/F# Cadd9 Cadd9 D D A A A A

---------0-------|---------0-------|---------0-------|---------0-------|------
-----------0-----|-----------3-----|-----3-----3---3-|-----3-----3---3-|------
-------0-----0---|-------0-----0---|---2---2-----2---|---2---2-----2---|------
-----2-----------|-----0---------0-|-0---------------|-0---------------|---2--
---2-----------2-|---2-------------|-----------------|-----------------|-3----
-0---------------|-3---------------|-----------------|-----------------|------
Outro:

-----0-------|---------0-------|-----------------|-----------------|----------
-3-----3---3-|-----3-----3-----|-----------------|-----------------|----------
-------------|---------------22|-2---4-2---------|-----------------|----------
---2-----2---|---2---2-----2-22|-2---2-2---------|-----------------|----------
-------------|-3-------------00|-0---0-0---------|-----------------|----------
-------------|-----------------|-----------------|-----------------|----------

Тональность:

Это должно быть в ТОП-листе! - Топ-лист композиций



Назад
Рекомендуем посмотреть другие песни исполнителя «Limp Bizkit»:

  • Комменты Fb ()
  • Комменты ВК



Добавить в Избранное Браузера
Сохранить здесь Очистить


x

0


+
-

+
-

-

Авторизация





Зарегистрироваться

M

Дата и время

  • 23:48:26
     

Социальные ссылки


Наши приложения

  • Muzbank App Play Market
  • Muzbank Amazon App