MUZBANK


МУЗЫКАЛЬНО-ИНФОРМАЦИОННЫЙ БАНК





LLimp Bizkit • Build A Bridge (аккорды и текст - chords & lyrics)


782

Print

Видео «Build A Bridge (Limp Bizkit)»

Видео клипы к песне подбираются автоматически сайтом youtube. Возможны некоторые несоответствия клипов песне.

↑ Спрятать рекламу ↑






Intro X4
c#|--------------------------------------------------------------------|
G#|--------------------------------------------------------------------|
E |----------0---------0-----0-----------------------------------------|
B |----4-0-----0---0-----0-----0---0-----0---0-----------0---0---------|
F#|--2-----2-----2---3-----3-----0-----5-------0---0---5-------0---0---|
C#|----------------------------------3-----3-----5---3-----3-----5-----|

Intro X2 with
build a bridge to your mind
takes me there everytime
lay it all on the line
if there’s a way

Harmonic
C#|------------------------------------|
G#|--------------------12--------------|
E|---5--------------------------------|
B|--------------5---------------------|
F#|------------------------------------|
B|------------------------------------|

Intro X2 and harmonic X2 with
build a bridge, make a path
overlook the aftermath
make my tears be your bath
if there’s a way

(I don't know how to play this part)
only if you’ll take a ride
go with me to the other side

Chord 1
C# B F#
c#|-----|-----|-----|
G#|-----|-----|-----|
E |--9--|--7--|-----|
B |--9--|--7--|--7--|
F#|--7--|--5--|--7--|
C#|-----|-----|--5--|

chorus with chord 1
C# B F#
even though it’s gonna crumble down
C# B F#
i’ll keep building till you come around
C# B F#
even though it’s gonna fall apart, break my heart
C# B F#
i’ll keep building ‘till i die

Intro X2 with
build a bridge of memories
stretch it out overseas
to the end of the world
if there’s a way

Intro X2 and harmonic X2 with
build a bridge made of pain
send my longing down the drain
have no reasons to complain
if there’s a way

(I don't know how to play this part)
only if you’ll take a ride
go with me to the other side

chorus with chord
C# B F#
even though it’s gonna crumble down
C# B F#
i’ll keep building till you come around
C# B F#
even though it’s gonna fall apart, break my heart
C# B F#
i’ll keep building ‘till i die

Chord 2
B A G#
C#|------|------|------|
G#|------|------|------|
E|------|------|------|
B|---7--|---5--|---4--|
F#|-5----|--3---|--2---|
B|------|------|------|

Chord 2 with
B A G# B A G#
wait...wait for me....wait… please wait for me

Chord 2 PM
B A G#
C#|-----|-----|-----|
G#|-----|-----|-----|
E|-----|-----|-----|
B|--7--|--5--|--4--|
F#|--5--|--3--|--2--|
B|-----|-----|-----|
PM PM PM

Chord 2 PM with
B A G# B A G#
wait...wait for me....wait… please wait for me

Chord 3
D# C# G#
C#|------|-----|-----|
G#|------|-----|-----|
E|------|-----|-----|
B|--11--|--9--|-----|
F#|--9---|--7--|--9--|
B|------|-----|--7--|

chorus with chord 3
D# C# G#
even though it’s gonna crumble down
D# C# G#
i’ll keep building till you come around
D# C# G#
even though it’s gonna fall apart, break my heart
D# C# G#
i’ll keep building ‘till i die

chorus with chord 1
C# B F#
even though it’s gonna crumble down
C# B F#
i’ll keep building till you come around
C# B F#
even though it’s gonna fall apart, break my heart
C# B F#
i’ll keep building ‘till i die


OK!you see it very b-e-a beautiful song!

Тональность:

Это должно быть в ТОП-листе! - Топ-лист композиций



Назад
Рекомендуем посмотреть другие песни исполнителя «Limp Bizkit»:

  • Комменты Fb ()
  • Комменты ВК



Добавить в Избранное Браузера
Сохранить здесь Очистить


x

0


+
-

+
-

-

Авторизация





Зарегистрироваться

M

Дата и время

  • 23:00:58
     

Социальные ссылки


Наши приложения

  • Muzbank App Play Market
  • Muzbank Amazon App