MUZBANK


МУЗЫКАЛЬНО-ИНФОРМАЦИОННЫЙ БАНК





LLimp Bizkit • Crack Addict (аккорды и текст - chords & lyrics)


418

Print

Видео «Crack Addict (Limp Bizkit)»

Видео клипы к песне подбираются автоматически сайтом youtube. Возможны некоторые несоответствия клипов песне.

↑ Спрятать рекламу ↑






 


Song Title: Crack Addict
Artist: Limp Bizkit
Tab Made By: Mike Rejdych

Eb| ----------------------------------------------------------------------|
Bb| ----------------------------------------------------------------------|
Gb| ----------------------------------------------------------------------|
Db| ------2---------------------------------------------------------------|	(4x)
Ab| ------2---------------------------------------------------------------|
Db| ------2---------------------------------------------------------------|
			(Let Echo)

Eb| ---------------|
Bb| ---------------|
Gb| ---------------|
Db| ------2--1--0--|      (2x)
Ab| ------2--1--0--|
Db| ------2--1--0--|

Eb| --------------------------------------------------------------------------|
Bb| --------------------------------------------------------------------------|
Gb| --------------------------------------------------------------------------|
Db| --2-----2-----2-2------7^-------------------------------------------------|
Ab| --2-----2-----2-2------7^-------------------------------------------------|
Db| --2-----2-----2-2------7^-------------------------------------------------|

Eb| ---------------------------------------------------------------------------|
Bb| ---------------------------------------------------------------------------|
Gb| ---------------------------------------------------------------------------|
Db| --2-----2-----2-2----2-1-x--2-1-x------------------------------------------|
Ab| --2-----2-----2-2----2-1-x--2-1-x------------------------------------------|
Db| --2-----2-----2-2----2-1-x--2-1-x------------------------------------------|

Eb| --------------------------------------------------------------------------|
Bb| --------------------------------------------------------------------------|
Gb| --------------------------------------------------------------------------|
Db| --2-----2-----2-2------7^-------------------------------------------------|
Ab| --2-----2-----2-2------7^-------------------------------------------------|
Db| --2-----2-----2-2------7^-------------------------------------------------|

Eb| ---------------------------------------------------------------------------|
Bb| ---------------------------------------------------------------------------|
Gb| ---------------------------------------------------------------------------|
Db| --2-----2-----2-2----2-1-0----2-1-0----------------------------------------|
Ab| --2-----2-----2-2----2-1-0----2-1-0----------------------------------------|
Db| --2-----2-----2-2----2-1-0----2-1-0----------------------------------------|
			(Let Last  

Тональность:

Это должно быть в ТОП-листе! - Топ-лист композиций



Назад
Рекомендуем посмотреть другие песни исполнителя «Limp Bizkit»:

  • Комменты Fb ()
  • Комменты ВК



Добавить в Избранное Браузера
Сохранить здесь Очистить


x

0


+
-

+
-

-

Авторизация





Зарегистрироваться

M

Дата и время

  • 18:58:47
     

Социальные ссылки


Наши приложения

  • Muzbank App Play Market
  • Muzbank Amazon App