MUZBANK


МУЗЫКАЛЬНО-ИНФОРМАЦИОННЫЙ БАНК





LLimp Bizkit • Creamer (аккорды и текст - chords & lyrics)


453

Print

Видео «Creamer (Limp Bizkit)»

Видео клипы к песне подбираются автоматически сайтом youtube. Возможны некоторые несоответствия клипов песне.

↑ Спрятать рекламу ↑





Intro:

Guitar 1

Intro:
E|---------------------------|---------------------------|
B|--9----9----9--------------|--9----9----9--------------|
G|--8----8----8--------------|--8----8----8--------------|
D|--6----6----6--------------|--6----6----6--------------|
A|---------------------------|---------------------------|
E|-----4----4----4--4--4--4--|-----4----4----4--4--4--4--| (x3)

Verse:

E|-------------------------------|-------------------------------|
B|-----4--5--0-5-4-5-4-2-0-4-2-0-|-----4--5--0-5-7-5-4-5-4-2-4-2-|
G|--1----------------------------|--1----------------------------|
D|-------------------------------|-------------------------------|
A|-------------------------------|-------------------------------|
E|-------------------------------|-------------------------------| (x7)

Chorus:

E|----------------------------------|
B|----0-----0-----0-----------------|
G|--------------------2-----2-----2-|
D|--2---2-2---2-2---2---2-2---2-2---|
A|----------------------------------|
E|----------------------------------| (x6)

Verse:

E|-------------------------------|-------------------------------|
B|-----4--5--0-5-4-5-4-2-0-4-2-0-|-----4--5--0-5-7-5-4-5-4-2-4-2-|
G|--1----------------------------|--1----------------------------|
D|-------------------------------|-------------------------------|
A|-------------------------------|-------------------------------|
E|-------------------------------|-------------------------------| (x7)

Chorus:

E|----------------------------------|
B|----0-----0-----0-----------------|
G|--------------------2-----2-----2-|
D|--2---2-2---2-2---2---2-2---2-2---|
A|----------------------------------|
E|----------------------------------| (x6)


--------4----4----4----4----|---------------------------|
-----7----2----2----2----2--|-----4--5----5----4--5--4--|
--1-------------------------|--1-------1----1-----------|
----------------------------|---------------------------|
----------------------------|---------------------------|
----------------------------|---------------------------|



----------------------------|----------------------------|
-----5--7----7----7----7----|-----0--2----2----2----2----|
--4-------4----4----4----4--|----------------------------|
----------------------------|--4-------4----4----4----4--|
----------------------------|----------------------------|
----------------------------|----------------------------|



--------4----4----4----4----|---------------------------|
-----7----2----2----2----2--|-----4--5----5----4--5--4--|
--1-------------------------|--1-------1----1-----------|
----------------------------|---------------------------|
----------------------------|---------------------------|
----------------------------|---------------------------|



----------------------------|----------------------------|
-----5--7----7----7----7----|-----0--2----2----2----2----|
--4-------4----4----4----4--|----------------------------|
----------------------------|--4-------4----4----4----4--|
----------------------------|----------------------------|
----------------------------|----------------------------|



--------4----4----4----4----|---------------------------|
-----7----2----2----2----2--|-----4--5----5----4--5--4--|
--1-------------------------|--1-------1----1-----------|
----------------------------|---------------------------|
----------------------------|---------------------------|
----------------------------|---------------------------|



----------------------------|----------------------------|
-----5--7----7----7----7----|-----0--2----2----2----2----|
--4-------4----4----4----4--|----------------------------|
----------------------------|--4-------4----4----4----4--|
----------------------------|----------------------------|
----------------------------|----------------------------|



--------4----4----4----4----|---------------------------|
-----7----2----2----2----2--|-----4--5----5----4--5--4--|
--1-------------------------|--1-------1----1-----------|
----------------------------|---------------------------|
----------------------------|---------------------------|
----------------------------|---------------------------|



----------------------------|----------------------------|
-----5--7----7----7----7----|-----0--2----2----2----2----|
--4-------4----4----4----4--|----------------------------|
----------------------------|--4-------4----4----4----4--|
----------------------------|----------------------------|
----------------------------|----------------------------|

Chorus:

---------------------------|---------------------------|
--9----9----9--------------|--9----9----9--------------|
--8----8----8--------------|--8----8----8--------------|
--6----6----6--------------|--6----6----6--------------|
---------------------------|---------------------------|
-----4----4----4--4--4--4--|-----4----4----4--4--4--4--| (x3)

Тональность:

Это должно быть в ТОП-листе! - Топ-лист композиций



Назад
Рекомендуем посмотреть другие песни исполнителя «Limp Bizkit»:

  • Комменты Fb ()
  • Комменты ВК



Добавить в Избранное Браузера
Сохранить здесь Очистить


x

0


+
-

+
-

-

Авторизация





Зарегистрироваться

M

Дата и время

  • 04:41:37
     

Социальные ссылки


Наши приложения

  • Muzbank App Play Market
  • Muzbank Amazon App