MUZBANK


МУЗЫКАЛЬНО-ИНФОРМАЦИОННЫЙ БАНК





LLimp Bizkit • Don't Go Off Wandering (аккорды и текст - chords & lyrics)


532

Print

Видео «Don't Go Off Wandering (Limp Bizkit)»

Видео клипы к песне подбираются автоматически сайтом youtube. Возможны некоторые несоответствия клипов песне.

↑ Спрятать рекламу ↑





Tuning (low to high): C# F# B E G# C#

Key:
x - muted note
(4) - fourth fret natural harmonic


Intro and outro:
C#|--------------------------------------------|
G#|--------------------------------------------|
E |-9-------9-------9--------------------------|
B |-10------10------10-------------------------|
F#|-7-------7-------7-------7--7-----7----7--7-|
C#|-8-------8-------8-------0--0-----0----0--0-|

C#|--------------------------------------------|
G#|--------------------------------------------|
E |-9-------9-------9--------------------------|
B |-10------10------10-------------------------|
F#|-7-------7-------7-------7--7-----7----7--7-|
C#|-8-------8-------8-------0--0-----0----0--0-|

Verse:
C#|------------------------------------------------------------|
G#|------------------------------------------------------------|
E |----------------------9---9---9---9-7-----7---7--7----9---9-|
B |--------9---------------------------------------------------|
F#|-7----------------------------------------------------------|
C#|---------------8--------------------------------------------|

C#|------------------------------------------------------------|
G#|------------------------------------------------------------|
E |----------------------9---9---9---9-7-----7---7--7----9---9-|
B |--------9---------------------------------------------------|
F#|-7----------------------------------------------------------|
C#|---------------8--------------------------------------------|

C#|------------------------------------------------------------|
G#|------------------------------------------------------------|
E |----------------------9---9---9---9-7-----7---7--7----9---9-|
B |--------9---------------------------------------------------|
F#|-7----------------------------------------------------------|
C#|---------------8--------------------------------------------|

C#|------------------------------------------------------------|
G#|------------------------------------------------------------|
E |----------------------9---9---9---9-7-----7---7--7----9---9-|
B |--------9---------------------------------------------------|
F#|-7----------------------------------------------------------|
C#|---------------8--------------------------------------------|

Chorus: (strumming is sorta like a gallop) the chorus is layered with the verse
C#|-------------------------| |------------------------------------------------|
G#|-------------------------| |------------------------------------------------|
E |-9--------------9--------| |----------9---9---9---9-7-----7---7--7----9---9-|
B |-9------10------9-----10-| |----9-------------------------------------------|
F#|-7------10------7-----10-| |-7----------------------------------------------|
C#|--------8-------------8--| |-------8----------------------------------------|

C#|-------------------------| |------------------------------------------------|
G#|-------------------------| |------------------------------------------------|
E |-9--------------9--------| |----------9---9---9---9-7-----7---7--7----9---9-|
B |-9------10------9-----10-| |----9-------------------------------------------|
F#|-7------10------7-----10-| |-7----------------------------------------------|
C#|--------8-------------8--| |-------8----------------------------------------|

Verse:
C#|------------------------------------------------------------|
G#|------------------------------------------------------------|
E |----------------------9---9---9---9-7-----7---7--7----9---9-|
B |--------9---------------------------------------------------|
F#|-7----------------------------------------------------------|
C#|---------------8--------------------------------------------|

C#|------------------------------------------------------------|
G#|------------------------------------------------------------|
E |----------------------9---9---9---9-7-----7---7--7----9---9-|
B |--------9---------------------------------------------------|
F#|-7----------------------------------------------------------|
C#|---------------8--------------------------------------------|

Prechorus (only played after the second verse)
C#|---------------------------------------------------------------|
G#|-------------------------9----------------------------------11-|
E |-9-------9-------9---------------10-------10-------10----------|
B |-x-------x-------x----------------x--------x--------x----------|
F#|-7-------7-------7----------------8--------8--------8----------|
C#|---------------------------------------------------------------|

C#|---------------------------------------------------------------|
G#|-------------------------9----------------------------------11-|
E |-9-------9-------9---------------10-------10-------10----------|
B |-x-------x-------x----------------x--------x--------x----------|
F#|-7-------7-------7----------------8--------8--------8----------|
C#|---------------------------------------------------------------|

C#|---------------------------------------------------------------|
G#|-------------------------9----------------------------------11-|
E |-9-------9-------9---------------10-------10-------10----------|
B |-x-------x-------x----------------x--------x--------x----------|
F#|-7-------7-------7----------------8--------8--------8----------|
C#|---------------------------------------------------------------|

C#|---------------------------------------------------------------|
G#|-------------------------9----------------------------------11-|
E |-9-------9-------9---------------10-------10-------10----------|
B |-x-------x-------x----------------x--------x--------x----------|
F#|-7-------7-------7----------------8--------8--------8----------|
C#|---------------------------------------------------------------|

Chorus: (strumming is sorta like a gallop) the chorus is layered with the verse
C#|-------------------------| |------------------------------------------------|
G#|-------------------------| |------------------------------------------------|
E |-9--------------9--------| |----------9---9---9---9-7-----7---7--7----9---9-|
B |-9------10------9-----10-| |----9-------------------------------------------|
F#|-7------10------7-----10-| |-7----------------------------------------------|
C#|--------8-------------8--| |-------8----------------------------------------|

C#|-------------------------| |------------------------------------------------|
G#|-------------------------| |------------------------------------------------|
E |-9--------------9--------| |----------9---9---9---9-7-----7---7--7----9---9-|
B |-9------10------9-----10-| |----9-------------------------------------------|
F#|-7------10------7-----10-| |-7----------------------------------------------|
C#|--------8-------------8--| |-------8----------------------------------------|

Intro and Outro:
C#|--------------------------------------------|
G#|--------------------------------------------|
E |-9-------9-------9--------------------------|
B |-10------10------10-------------------------|
F#|-7-------7-------7-------7--7-----7----7--7-|
C#|-8-------8-------8-------0--0-----0----0--0-|

C#|--------------------------------------------|
G#|--------------------------------------------|
E |-9-------9-------9--------------------------|
B |-10------10------10-------------------------|
F#|-7-------7-------7-------7--7-----7----7--7-|
C#|-8-------8-------8-------0--0-----0----0--0-|

Bridge 1:
C#|--------------------------------------------------|
G#|--------------------------------------------------|
E |--------------------------------------------------|
B |--------------------------------9-------8---------|
F#|-7----------------------------------------------6-|
C#|--------------------------------------------------|

C#|--------------------------------------------------|
G#|--------------------------------------------------|
E |--------------------------------------------------|
B |--------------------------------9-------8---------|
F#|-7----------------------------------------------6-|
C#|--------------------------------------------------|

C#|--------------------------------------------------|
G#|--------------------------------------------------|
E |--------------------------------------------------|
B |--------------------------------9-------8---------|
F#|-7----------------------------------------------6-|
C#|--------------------------------------------------|

C#|--------------------------------------------------|
G#|--------------------------------------------------|
E |--------------------------------------------------|
B |--------------------------------9-------8---------|
F#|-7----------------------------------------------6-|
C#|--------------------------------------------------|

C#|--------------------------------------------------|
G#|--------------------------------------------------|
E |--------------------------------------------------|
B |--------------------------------9-------8---------|
F#|-7----------------------------------------------6-|
C#|--------------------------------------------------|

C#|--------------------------------------------------|
G#|--------------------------------------------------|
E |--------------------------------------------------|
B |--------------------------------9-------8---------|
F#|-7----------------------------------------------6-|
C#|--------------------------------------------------|

C#|--------------------------------------------------|
G#|--------------------------------------------------|
E |--------------------------------------------------|
B |--------------------------------9-------8---------|
F#|-7----------------------------------------------6-|
C#|--------------------------------------------------|

C#|--------------------------------------------------|
G#|--------------------------------------------------|
E |--------------------------------------------------|
B |--------------------------------9-------8---------|
F#|-7----------------------------------------------6-|
C#|--------------------------------------------------|

C#|--------------------------------------------------|
G#|--------------------------------------------------|
E |--------------------------------------------------|
B |--------------------------------9-------8---------|
F#|-7----------------------------------------------6-|
C#|--------------------------------------------------|

Bridge 2: this part comes right when fred says "I insist that you feel me NOW!"
C#|--------------------|
G#|--------------------|
E |--------------------|
B |---9---8----12---11-|
F#|-7---6---10----9----|
C#|--------------------|

C#|--------------------|
G#|--------------------|
E |--------------------|
B |---9---8----12---11-|
F#|-7---6---10----9----|
C#|--------------------|

Bridge 3:
C#|-------------------------------|
G#|-------------------------------|
E |-------------------------------|
B |---9--------------12-----------|
F#|-7----77-7-77--10--------------|
C#|------00-0-00--------0(4)-0-00-|

Chorus: (strumming is sorta like a gallop) the chorus is layered with the verse
C#|-------------------------| |------------------------------------------------|
G#|-------------------------| |------------------------------------------------|
E |-9--------------9--------| |----------9---9---9---9-7-----7---7--7----9---9-|
B |-9------10------9-----10-| |----9-------------------------------------------|
F#|-7------10------7-----10-| |-7----------------------------------------------|
C#|--------8-------------8--| |-------8----------------------------------------|

C#|-------------------------| |------------------------------------------------|
G#|-------------------------| |------------------------------------------------|
E |-9--------------9--------| |----------9---9---9---9-7-----7---7--7----9---9-|
B |-9------10------9-----10-| |----9-------------------------------------------|
F#|-7------10------7-----10-| |-7----------------------------------------------|
C#|--------8-------------8--| |-------8----------------------------------------|

Intro and Outro:
C#|--------------------------------------------|
G#|--------------------------------------------|
E |-9-------9-------9--------------------------|
B |-10------10------10-------------------------|
F#|-7-------7-------7-------7--7-----7----7--7-|
C#|-8-------8-------8-------0--0-----0----0--0-|

C#|--------------------------------------------|
G#|--------------------------------------------|
E |-9-------9-------9--------------------------|
B |-10------10------10-------------------------|
F#|-7-------7-------7-------7--7-----7----7--7-|
C#|-8-------8-------8-------0--0-----0----0--0-|

Тональность:

Это должно быть в ТОП-листе! - Топ-лист композиций



Назад
Рекомендуем посмотреть другие песни исполнителя «Limp Bizkit»:

  • Комменты Fb ()
  • Комменты ВК



Добавить в Избранное Браузера
Сохранить здесь Очистить


x

0


+
-

+
-

-

Авторизация





Зарегистрироваться

M

Дата и время

  • 16:37:31
     

Социальные ссылки


Наши приложения

  • Muzbank App Play Market
  • Muzbank Amazon App