MUZBANK


МУЗЫКАЛЬНО-ИНФОРМАЦИОННЫЙ БАНК





LLimp Bizkit • Eat You Alive (аккорды и текст - chords & lyrics)


401

Print

Видео «Eat You Alive (Limp Bizkit)»

Видео клипы к песне подбираются автоматически сайтом youtube. Возможны некоторые несоответствия клипов песне.

↑ Спрятать рекламу ↑





 


Tuning:  Db Ab Db Gb Bb Eb


intro
--------------------------------------------------------------------
--------------------------------------------------------------------
--------------------------------------------------------------------
--0-2-2-2-3-0-3--0-2-2-2-3-0-3--0-2-2-2-3-0-3--0-2-2-2-3------------
--0-2-2-2-3-0-3--0-2-2-2-3-0-3--0-2-2-2-3-0-3--0-2-2-2-3------------
--0-2-2-2--------0-2-2-2--------0-2-2-2--------0-2-2-2--------------

chorus
heavy distortion
---------------------------------------------------------------------
---------------------------------------------------------------------
---------------------------------------------------------------------
--0-2-2-2-3-0-3--0-2-2-2-3-0-3--0-2-2-2-3-0-3--0-2-2-2-3-0-3---------
--0-2-2-2-3-0-3--0-2-2-2-3-0-3--0-2-2-2-3-0-3--0-2-2-2-3-0-3---------
--0-2-2-2-3-0-3--0-2-2-2-3-0-3--0-2-2-2-3-0-3--0-2-2-2-3-0-3---------


verse
pm- - - - - - -  - - - -        - - - - - - -  - - - -
---------------------------------------------------------------------
---------------------------------------------------------------------
---------------------------------------------------------------------
--0-2-2-2-3-0-2--0-2-2-2--------0-2-2-2-3-0-2--0-2-2-2---------------
--0-2-2-2-3-0-2--0-2-2-2--------0-2-2-2-3-0-2--0-2-2-2---------------
--0-2-2-2-3-0-2--0-2-2-2--------0-2-2-2-3-0-2--0-2-2-2---------------


pre chorus
         /b/              /b/              /b/               /b/
---------------------------------------------------------------------
---------------------------------------------------------------------
--9-9-9-9-9^-9-9---9-9-9-9-9^-9-9---9-9-9-9-9^-9-9---9-9-9-9-9^-9-9--
--x-x-x-x-x--x-x---x-x-x-x-x--x-x---x-x-x-x-x--x-x---x-x-x-x-x--x-x--
--7-7-7-7-7^-7-7---7-7-7-7-7^-7-7---7-7-7-7-7^-7-7---7-7-7-7-7^-7-7--
---------------------------------------------------------------------


chorus

verse

prechorus

chorus


chorus 2
---------------------------------------------------------------------
---------------------------------------------------------------------
--------------------9-9-9--------------------------------------------
--5-5-5-5-5-5-7-7-7-x-x-x--------------------------------------------
--3-3-3-3-3-3-5-5-5-7-7-7---2-2-2-2-2-2-2-2-2-2-2-2------------------
----------------------------2-2-2-2-2-2-2-2-2-2-2-2------------------

chorus 2 end
---------------------------------------------------------------------
---------------------------------------------------------------------
--------------------9-9-9--------------------------------------------
--5-5-5-5-5-5-7-7-7-x-x-x--------------------------------------------
--3-3-3-3-3-3-5-5-5-7-7-7---2~~~~~~~---------------------------------
----------------------------2~~~~~~~---------------------------------



bass interlude



interlude
clean w/chorus
---------------------------------------------------------------------
--------13------------13-----------13------------13------------------
-----12----12------12-----------12----12------12---------------------
--10-------------------------------------------------10-12-----------
---------------13-----------12------------13-------------------------
---------------------------------------------------------------------


interlude
phaser & distortion
---------------------------------------------------------------------
--------13----------------13--------------13----------------13-------
-----12----------------12--------------12----------------12----------
--10-------10-10h12-10--------10-12-10-------10-10h12-10-------10-12-
---------------------------------------------------------------------
---------------------------------------------------------------------


chorus 2
---------------------------------------------------------------------
---------------------------------------------------------------------
--------------------9-9-9--------------------------------------------
--5-5-5-5-5-5-7-7-7-x-x-x--------------------------------------------
--3-3-3-3-3-3-5-5-5-7-7-7---2-2-2-2-2-2-2-2-2-2-2-2------------------
----------------------------2-2-2-2-2-2-2-2-2-2-2-2------------------

fill 1
---------------------------------------------------------------------
---------------------------------------------------------------------
--------------------9-9-9--------------------------------------------
--5-5-5-5-5-5-7-7-7-x-x-x--------------------------------------------
--3-3-3-3-3-3-5-5-5-7-7-7--------------------------------------------
---------------------------------------------------------------------

fill 2
--------------------------------------------------------------------
--------------------------------------------------------------------
--------------------------------------------------------------------
--0-2-2-2-3-0-3--0-2-2-2-3------------------------------------------
--0-2-2-2-3-0-3--0-2-2-2-3------------------------------------------
--0-2-2-2--------0-2-2-2--------------------------------------------


chorus


end
-------------------------------------------------------------------
-------------------------------------------------------------------
-------------------------------------------------------------------
--0-2-2-2-3-0-3--0-2-2-2-3-0-3--2----------------------------------
--0-2-2-2-3-0-3--0-2-2-2-3-0-3--2----------------------------------
--0-2-2-2-3-0-3--0-2-2-2-3-0-3--2----------------------------------

lyrics

Hey you!
Mrs I dont know wot the *** ya name is
Im drawn to you
Somethings magnetic here
If I could aproach you 
Or even get close to the scent that you left behind I 

Тональность:

Это должно быть в ТОП-листе! - Топ-лист композиций



Назад
Рекомендуем посмотреть другие песни исполнителя «Limp Bizkit»:

  • Комменты Fb ()
  • Комменты ВК



Добавить в Избранное Браузера
Сохранить здесь Очистить


x

0


+
-

+
-

-

Авторизация





Зарегистрироваться

M

Дата и время

  • 13:20:25
     

Социальные ссылки


Наши приложения

  • Muzbank App Play Market
  • Muzbank Amazon App