MUZBANK


МУЗЫКАЛЬНО-ИНФОРМАЦИОННЫЙ БАНК





LLimp Bizkit • Head For The Barricade (аккорды и текст - chords & lyrics)


481

Print

Видео «Head For The Barricade (Limp Bizkit)»

Видео клипы к песне подбираются автоматически сайтом youtube. Возможны некоторые несоответствия клипов песне.

↑ Спрятать рекламу ↑





Intro: w/dist X4
C#|------------------------------------|
G#|------------------------------------|
E |------------------------------------|
B |------------------------------------|
F#|--5/6h0-----------------------------|
B |---------0--0--0--0--0--0--0--------|
PM . . . . . . .
fight... fight...

Verse: w/dist
C#|------------------------------------|
G#|------------------------------------|
E |------------------------------------|
B |------------------------------------|
F#|--5/6h0-----------------------------|
B |---------0--0--0--0--0--0--0--------|
PM . . . . . . .

Verse: w/dist X8 with
sometimes you gotta fight for your right when you’re
not sure you're in a fight for your life, right?
if you ain't packin' any tactics you might get your ass
kicked
even if you are a little knuckle head
i'm kinda sick of being aggravated, i'm glad I'm hated
i guess i'm doin' somethin' right
that's what happened back in columbine
you gotta know when to stop and don't go over the top
'cuz there's a chamber deep inside the brain
that's covered with chains, so don't be shakin' 'em loose
and if ya do, i'd be runnin' for the hills
'cuz i'm ready to rock and now i'm playin' for real
i gotta... fight... fight
you'd better watch out when my adrenaline kicks
i gotta... fight... fight...
it's too late you already been hit... damn

Chorus: w/heavy dist
C#|--------------------------|---------------------------------|
G#|--------------------------|---------------------------------|
E |--------------------------|---------------------------------|
B |-5-3-5-3------------------|-5-3-5-3-------------------------|
F#|-5-3-5-3------------------|-5-3-5-3-------------------------|
B |-5-3-5-3------------------|-5-3-5-3-------------------------|
stick 'em stick em' stick em ha ha ha stick em
C#|--------------------------|---------------------------------------|
G#|--------------------------|---------------------------------------|
E |--------------------------|---------------------------------------|
B |-5-3-5-3------------------|-5-3-5-3-----7-------7---8-------8-----|
F#|-5-3-5-3------------------|-5-3-5-3---------6-----------6---------|
B |-5-3-5-3------------------|-5-3-5-3-------------------------------|
stick em' stick em' yeah, head for the barricade
C#|--------------------------|---------------------------------|
G#|--------------------------|---------------------------------|
E |--------------------------|---------------------------------|
B |-5-3-5-3------------------|-5-3-5-3-------------------------|
F#|-5-3-5-3------------------|-5-3-5-3-------------------------|
B |-5-3-5-3------------------|-5-3-5-3-------------------------|
stick 'em stick em' stick em ha ha ha stick em
C#|-----------------|----------------------------------------------------------|
G#|-----------------|----------------------------------------------------------|
E |-----------------|----------------------------------------------------------|
B |-5-3-5-3---------|-5-3-5-3-----7-------7---8-------8---7-------7---8-------8|
F#|-5-3-5-3---------|-5-3-5-3---------6-----------6-----------6-----------6----|
B |-5-3-5-3---------|-5-3-5-3--------------------------------------------------|
stick em' stick em' yeah, head for the barricade


Verse: w/dist
C#|------------------------------------|
G#|------------------------------------|
E |------------------------------------|
B |------------------------------------|
F#|--5/6h0-----------------------------|
B |---------0--0--0--0--0--0--0--------|
PM . . . . . . .

Verse: w/dist X8 with
this world can make you sick to your stomach so i
put on my headphones, listen to the deftones
it's gettin' crowded in my spaceship
livin' in a dream, runnin' from a hate machine
ya know it's such a drag when there's people talking down to ya
such a drag thinking everything sucks (do ya?)
walk away with the spit on your face?
or do ya draw the line just to give 'em a taste?
'cuz i know its never gonna end,
if it happens again i'm going straight for the throat
another note, don't forget your had a chance
now off of the side lines and ready to dance
i gotta... fight... fight
better watch out when my adrenaline kicks
i gotta... fight... fight...
it's too late you already been hit... damn

Chorus: w/heavy dist
C#|--------------------------|---------------------------------|
G#|--------------------------|---------------------------------|
E |--------------------------|---------------------------------|
B |-5-3-5-3------------------|-5-3-5-3-------------------------|
F#|-5-3-5-3------------------|-5-3-5-3-------------------------|
B |-5-3-5-3------------------|-5-3-5-3-------------------------|
stick 'em stick em' stick em ha ha ha stick em
C#|--------------------------|---------------------------------------|
G#|--------------------------|---------------------------------------|
E |--------------------------|---------------------------------------|
B |-5-3-5-3------------------|-5-3-5-3-----7-------7---8-------8-----|
F#|-5-3-5-3------------------|-5-3-5-3---------6-----------6---------|
B |-5-3-5-3------------------|-5-3-5-3-------------------------------|
stick em' stick em' yeah, head for the barricade
C#|--------------------------|---------------------------------|
G#|--------------------------|---------------------------------|
E |--------------------------|---------------------------------|
B |-5-3-5-3------------------|-5-3-5-3-------------------------|
F#|-5-3-5-3------------------|-5-3-5-3-------------------------|
B |-5-3-5-3------------------|-5-3-5-3-------------------------|
stick 'em stick em' stick em ha ha ha stick em
C#|-----------------|----------------------------------------------------------|
G#|-----------------|----------------------------------------------------------|
E |-----------------|----------------------------------------------------------|
B |-5-3-5-3---------|-5-3-5-3-----7-------7---8-------8---7-------7---8-------8|
F#|-5-3-5-3---------|-5-3-5-3---------6-----------6-----------6-----------6----|
B |-5-3-5-3---------|-5-3-5-3--------------------------------------------------|
stick em' stick em' yeah, head for the barricade

Interlude: w/heavy dist
C#|---------------------------|
G#|---------------------------|
E |---------------------------|
B |---------------------------|
F#|-----5-5---6-5---5h8-5h6p5-|
B |-0-0-----0-----0-----------|
PM . . . .

Interlude: w/heavy dist X8 with
if you got the guts (head for the barricade)
then come on down (head for the barricade) x2

[and head for the barricade(No need to play this part)]

Interlude: w/heavy dist and faster
C#|---------------------------|
G#|---------------------------|
E |---------------------------|
B |---------------------------|{X8)
F#|-----5-5---6-5---5h8-5h6p5-|
B |-0-0-----0-----0-----------|
PM . . . .
fight!!

head for the barricade

Interlude.pt.2: w/heavy dist
C#|----------------------------------------|
G#|----------------------------------------|
E |----------------------------------------|
B |-0-0--14~-0-0--11~-0-0--10~-0-0--9------|
F#|-0-0--14~-0-0--11~-0-0--10~-0-0--9------|
B |-0-0--14~-0-0--11~-0-0--10~-0-0--9------|
i ain't playin' around
C#|----------------------------------------|
G#|----------------------------------------|
E |----------------------------------------|
B |-0-0--14~-0-0--11~-0-0--10~-0-0--9------|
F#|-0-0--14~-0-0--11~-0-0--10~-0-0--9------|
B |-0-0--14~-0-0--11~-0-0--10~-0-0--9------|
head for the barricade
C#|----------------------------------------|
G#|----------------------------------------|
E |----------------------------------------|
B |-0-0------0-0------0-0------0-0---------|
F#|-0-0------0-0------0-0------0-0---------|
B |-0-0--14~-0-0--11~-0-0--10~-0-0--9------|
i ain't playin' around
C#|----------------------------------------|
G#|----------------------------------------|
E |----------------------------------------|
B |-0-0------0-0------0-0------0-0---------|
F#|-0-0------0-0------0-0------0-0---------|
B |-0-0--14~-0-0--11~-0-0--10~-0-0--9------|
head for the barricade

Chorus: w/heavy dist
C#|--------------------------|---------------------------------|
G#|--------------------------|---------------------------------|
E |--------------------------|---------------------------------|
B |-5-3-5-3------------------|-5-3-5-3-------------------------|
F#|-5-3-5-3------------------|-5-3-5-3-------------------------|
B |-5-3-5-3------------------|-5-3-5-3-------------------------|
stick 'em stick em' stick em ha ha ha stick em
C#|--------------------------|---------------------------------------|
G#|--------------------------|---------------------------------------|
E |--------------------------|---------------------------------------|
B |-5-3-5-3------------------|-5-3-5-3-----7-------7---8-------8-----|
F#|-5-3-5-3------------------|-5-3-5-3---------6-----------6---------|
B |-5-3-5-3------------------|-5-3-5-3-------------------------------|
stick em' stick em' yeah, head for the barricade
C#|--------------------------|---------------------------------|
G#|--------------------------|---------------------------------|
E |--------------------------|---------------------------------|
B |-5-3-5-3------------------|-5-3-5-3-------------------------|
F#|-5-3-5-3------------------|-5-3-5-3-------------------------|
B |-5-3-5-3------------------|-5-3-5-3-------------------------|
stick 'em stick em' stick em ha ha ha stick em
C#|-----------------|----------------------------------------------------------|
G#|-----------------|----------------------------------------------------------|
E |-----------------|----------------------------------------------------------|
B |-5-3-5-3---------|-5-3-5-3-----7-------7---8-------8---7-------7---8-------8|
F#|-5-3-5-3---------|-5-3-5-3---------6-----------6-----------6-----------6----|
B |-5-3-5-3---------|-5-3-5-3--------------------------------------------------|
stick em' stick em' yeah, head for the barricade

C#|------------------------------|
G#|------------------------------|
E |------------------------------|
B |7-------7---8-------8--7------|
F#|----6-----------6------5------|
B |------------------------------|

Тональность:

Это должно быть в ТОП-листе! - Топ-лист композиций



Назад
Рекомендуем посмотреть другие песни исполнителя «Limp Bizkit»:

  • Комменты Fb ()
  • Комменты ВК



Добавить в Избранное Браузера
Сохранить здесь Очистить


x

0


+
-

+
-

-

Авторизация





Зарегистрироваться

M

Дата и время

  • 23:42:26
     

Социальные ссылки


Наши приложения

  • Muzbank App Play Market
  • Muzbank Amazon App