MUZBANK


МУЗЫКАЛЬНО-ИНФОРМАЦИОННЫЙ БАНК





LLimp Bizkit • Indigo Flow (аккорды и текст - chords & lyrics)


511

Print

Видео «Indigo Flow (Limp Bizkit)»

Видео клипы к песне подбираются автоматически сайтом youtube. Возможны некоторые несоответствия клипов песне.

↑ Спрятать рекламу ↑






C#------------------------------------------------|
G#------------------------------------------------|
E-o-----------------------------------------------|
B-o-14---14-14-9s10-14----14----14-14----14-14----|
F#-----7---------------10----10-------10-------9--|
C#--12---12-12------12----12----12-12----12-12----|

1 & 2 & 3 & 4 & (count)

+ + + + + + + +
C#-----------------------------------------------|
G#-----------------------------------------------|
E----------------------------------------------o-| play 8x
B--14---14-14-9s10-14----14----14-14----14-----o-|
F#----7---------------10----10-------10----9-----|
C#-12---12-12------12----12----12-12----12-------|

1 & 2 & 3 & 4 & (count)

Wes plays the verse riff by using his 2nd and 3rd fingers of
his picking hand to tap on the 12th and 14th frets on the detuned E and D
strings, respectively. He holds the pick with his thumb and 1st finger while
doing this. The other notes are sounded with the fretting hand.

Interlude and verse 2 riff (Harmonic minor scale)

C#---------------|------------------|
G#--8-----7------|---------------0--|
E-o--------------|--8------9--------|
B-o--------------|------------------|
F#---------------|------------------|
C#---------------|------------------|

C#---------------|------------------|
G#--8-----7------|------------------|
E----------------|----------------o-| play 6x total
B----------------|----------------o-|
F#---------------|------------------|
C#---------------|------------------|

Outro (This part is with record scratching)

* = Palm mute

C#----------------------------------|
G#----------------------------------|
E-o---------------------------------|
B-o---------------------------------|
F#----2-----2s3---5---5-----5-----4-|
C#--0---0-0-----0-3-0-3-0-0-3-0-0-2-|
* * * * * * * * * *
1 e + a 2 e + a 3 e + a 4 e + a

C#----------------------------------|
G#----------------------------------|
E---------------------------------o-| play 8x
B---------------------------------o-|
F#----2-----2s3---5---5-----5---4---|
C#--0---0-0-----0-3-0-3-0-0-3-0-2---|

Тональность:

Это должно быть в ТОП-листе! - Топ-лист композиций



Назад
Рекомендуем посмотреть другие песни исполнителя «Limp Bizkit»:

  • Комменты Fb ()
  • Комменты ВК



Добавить в Избранное Браузера
Сохранить здесь Очистить


x

0


+
-

+
-

-

Авторизация





Зарегистрироваться

M

Дата и время

  • 10:49:56
     

Социальные ссылки


Наши приложения

  • Muzbank App Play Market
  • Muzbank Amazon App