MUZBANK


МУЗЫКАЛЬНО-ИНФОРМАЦИОННЫЙ БАНК





LLimp Bizkit • Itll Be OK (аккорды и текст - chords & lyrics)


508

Print

Видео «Itll Be OK (Limp Bizkit)»

Видео клипы к песне подбираются автоматически сайтом youtube. Возможны некоторые несоответствия клипов песне.

↑ Спрятать рекламу ↑





 


Intro,Verse 1 : Play 8x 
  I just read your letter...
 E------------------------------------------------------------------------------
 B------------------------------------------------------------------------------
 G------0---------0------4-4-4-4-777-7766---------------------------------------
 D----4---4-----4---4-----------------------------------------------------------
 A------------------------------------------------------------------------------
 E-0---------0---------3-------------------------------------------------------- 
 
Verse 2,Pre-chorus : Play 2x
  What to do ? My life is through...
 E------------------------------------------------------------------------------
 B-----8b-----8b-----10b------10b-----------------------------------------------
 G-9-9----9-9----9-9------9--9--------------------------------------------------
 D------------------------------------------------------------------------------
 A------------------------------------------------------------------------------
 E------------------------------------------------------------------------------ 



   
I just read your letter
It says that you'll be gone for a while
Everything was getting better
I guess I'm just a fool strung out

What to do
My life is through
Just wanna kill
Myself for you


I wonder
Just how sympathetic you'll be
You've come to take me under
And I've forgotten all about me

What to do
My life is through
Just wanna kill
Myself for you

So tell me why?
You say goodbye
And tell me why
You're fucking up my whole life?
Yeah
Fucking up my whole life?

So I'm on my way
I leave today
If I get away
It'll be ok
It'll be ok


I'm looking out a window
Into a world that's taken you from me
And I'm feeling so disgusted
How pathetic can I possibly be?
What to do?

What to do
My life is through
Just wanna kill
Myself for you

So tell me why?
You say goodbye
And tell me why
You're fucking up my whole life?
Yeah
Fucking up my whole life?


So I'm on my way
I leave today
If I get away
It'll be ok
It'll be ok


If there's a better place you can take me
A better life you give me
Whatever place I can start all over
And I will never need what you gave me
And never need you to save me
And never feel like this life is over


If there's a better place you can take me
A better life you give me
Whatever place I can start all over
Then I would never need what you gave me
And never need you to save me
And never feel like this life is over
Feel like this life is over


So I'm on my way
I leave today
If I get away
It'll be ok
It'll be ok


Eb----------------------------------------------------r--|
Bb----------------------------------------------------e--|
Gb----------------------------------------------------p--|
Db-----------------------------7-7-7-10-10-10-9-9-----e--|
Ab--------7-8-7------7-8-7----------------------------a--|
Eb----0------------0---------7------------------------t--|

Тональность:

Это должно быть в ТОП-листе! - Топ-лист композиций



Назад
Рекомендуем посмотреть другие песни исполнителя «Limp Bizkit»:

  • Комменты Fb ()
  • Комменты ВК



Добавить в Избранное Браузера
Сохранить здесь Очистить


x

0


+
-

+
-

-

Авторизация





Зарегистрироваться

M

Дата и время

  • 08:36:53
     

Социальные ссылки


Наши приложения

  • Muzbank App Play Market
  • Muzbank Amazon App