MUZBANK


МУЗЫКАЛЬНО-ИНФОРМАЦИОННЫЙ БАНК





LLimp Bizkit • Just Drop Dead (аккорды и текст - chords & lyrics)


562

Print

Видео «Just Drop Dead (Limp Bizkit)»

Видео клипы к песне подбираются автоматически сайтом youtube. Возможны некоторые несоответствия клипов песне.

↑ Спрятать рекламу ↑






Tuning: Drop b tuning (b f# b e g# c#)


Intro/Prechorus
|---------------------------------------------------------------------------|
|---------------------------------------------------------------------------|
|---------------------------------------------------------------------------|
|-2-2-0h2-2-0h2-2-0h2-2-3-3-3-3---------------------------------------------|
|-2-2-0h2-2-0h2-2-0h2-2-3-3-3-3---------------------------------------------|
|-2-2-0h2-2-0h2-2-0h2-2-3-3-3-3---------------------------------------------|

Chorus
---------------------------------------------------------------------------|
|---------------------------------------------------------------------------|
|---------------------------------------------------------------------------|
|-4-4-4-4-4-4-4-4-4-4-4-4-4-4-4-4--3-3-3-3-3-3-3-3-3-3-3-3-3-3-3-3----------|
|-4-4-4-4-4-4-4-4-4-4-4-4-4-4-4-4--3-3-3-3-3-3-3-3-3-3-3-3-3-3-3-3----------|
|-4-4-4-4-4-4-4-4-4-4-4-4-4-4-4-4--3-3-3-3-3-3-3-3-3-3-3-3-3-3-3-3----------|

repeat verse prechorus and chorus

Bridge #1 X2
D|---------------------------------------------------------------------------|
A|---------------------------------------------------------------------------|
F|---------------------------------------------------------------------------|
C|-11h10-11h10-11h10-11-11-11-11-11-11---------------------------------------|
G|-11h10-11h10-11h10-11-11-11-11-11-11---------------------------------------|
C|-11h10-11h10-11h10-11-11-11-11-11-11---------------------------------------|

D|---------------------------------------------------------------------------|
A|---------------------------------------------------------------------------|
F|---------------------------------------------------------------------------|
C|-11h10-11-11-11-11-11-11---------------------------------------------------|
G|-11h10-11-11-11-11-11-11---------------------------------------------------|
C|-11h10-11-11-11-11-11-11---------------------------------------------------|

Bridge #2 X2
D|---------------------------------------------------------------------------|
A|---------------------------------------------------------------------------|
F|---------------------------------------------------------------------------|
C|-4h3-4h3-4h3-4-4-4-4-4-4---------------------------------------------------|
G|-4h3-4h3-4h3-4-4-4-4-4-4---------------------------------------------------|
C|-4h3-4h3-4h3-4-4-4-4-4-4---------------------------------------------------|

D|---------------------------------------------------------------------------|
A|---------------------------------------------------------------------------|
F|---------------------------------------------------------------------------|
C|-4h3-3-4-------------------------------------------------------------------|
G|-4h3-3-4-------------------------------------------------------------------|
C|-4h3-3-4-------------------------------------------------------------------|

D|---------------------------------------------------------------------------|
A|---------------------------------------------------------------------------|
F|---------------------------------------------------------------------------|
C|-4h3-3-4-4-4-4-4-4---------------------------------------------------------|
G|-4h3-3-4-4-4-4-4-4---------------------------------------------------------|
C|-4h3-3-4-4-4-4-4-4---------------------------------------------------------|

Тональность:

Это должно быть в ТОП-листе! - Топ-лист композиций



Назад
Рекомендуем посмотреть другие песни исполнителя «Limp Bizkit»:

  • Комменты Fb ()
  • Комменты ВК



Добавить в Избранное Браузера
Сохранить здесь Очистить


x

0


+
-

+
-

-

Авторизация





Зарегистрироваться

M

Дата и время

  • 15:27:20
     

Социальные ссылки


Наши приложения

  • Muzbank App Play Market
  • Muzbank Amazon App