MUZBANK


МУЗЫКАЛЬНО-ИНФОРМАЦИОННЫЙ БАНК





LLimp Bizkit • Mission Impossible (аккорды и текст - chords & lyrics)


677

Print

Видео «Mission Impossible (Limp Bizkit)»

Видео клипы к песне подбираются автоматически сайтом youtube. Возможны некоторые несоответствия клипов песне.

↑ Спрятать рекламу ↑





Intro x8
E|-------------------------------------------|
B|-------------------------------------------|
G|-------------------1-3---------------------|
D|---3--3-3--3--3-3------3--3-3--3--3-3--1-2-|
A|-------------------------------------------|
E|-------------------------------------------|

Verse x2
E|---14--11-------------------14--11--------------------14--11-----------------|
B|------------11-11-11-11-11------------------------------------11-11-11-11-11-|
G|-------------------------------------14-14-14-14-14--------------------------|
D|-----------------------------------------------------------------------------|
A|-----------------------------------------------------------------------------|
E|-----------------------------------------------------------------------------|

Verse (continued)
E|--14--11-------------------|
B|---------------------------|
G|------------14-14-14-13-13-|
D|---------------------------|
A|---------------------------|
E|---------------------------|

Chorus x2
E|-------------------------------------------|
B|-------------------------------------------|
G|-------------------------------------------|
D|-------------------1-3---------------------|
A|---3--3-3--3--3-3------3--3-3--3--3-3--1-2-|
E|-------------------------------------------|

Verse x2
E|---14--11---------------------14--11------------------14--11-----------------|
B|------------11-11-11-11-11------------------------------------11-11-11-11-11-|
G|--------------------------------------14-14-14-14-14-------------------------|
D|-----------------------------------------------------------------------------|
A|-----------------------------------------------------------------------------|
E|-----------------------------------------------------------------------------|

Verse (continued)
E|--14--11-------------------|
B|---------------------------|
G|------------14-14-14-13-13-|
D|---------------------------|
A|---------------------------|
E|---------------------------|

Chorus x2 with some distortion
E|-------------------------------------------|
B|-------------------------------------------|
G|-------------------------------------------|
D|-------------------1-3---------------------|
A|---3--3-3--3--3-3------3--3-3--3--3-3--1-2-|
E|-------------------------------------------|

Chorus x4 with heavy distortion
E|--------------------------------------------------------------|
B|--------------------------------------------------------------|
G|---------------------------3--5-------------------------------|
D|---5-5---5-5---5-5---5-5---3--5--5-5---5-5---5-5---5-5---3--4-|
A|---5-5---5-5---5-5---5-5---1--3--5-5---5-5---5-5---5-5---3--4-|
E|---3-3---3-3---3-3---3-3---------3-3---3-3---3-3---3-3---1--2-|

Chorus x2
E|-------------------------------------------|
B|-------------------------------------------|
G|-------------------------------------------|
D|-------------------1-3---------------------|
A|---3--3-3--3--3-3------3--3-3--3--3-3--1-2-|
E|-------------------------------------------|
After the chorus, then the verse and the chorus are being played at the same
time this takes 2 guitars.

Verse x4
E|---14--11---------------------14--11------------------14--11-----------------|
B|------------11-11-11-11-11------------------------------------11-11-11-11-11-|
G|--------------------------------------14-14-14-14-14-------------------------|
D|-----------------------------------------------------------------------------|
A|-----------------------------------------------------------------------------|
E|-----------------------------------------------------------------------------|

Verse (continued)
E|--14--11-------------------|
B|---------------------------|
G|------------14-14-14-13-13-|
D|---------------------------|
A|---------------------------|
E|---------------------------|

Chorus x4 with some distortion
E|-------------------------------------------|
B|-------------------------------------------|
G|-------------------------------------------|
D|-------------------1-3---------------------|
A|---3--3-3--3--3-3------3--3-3--3--3-3--1-2-|
E|-------------------------------------------|

Chorus x4 with heavy distortion
E|--------------------------------------------------------------|
B|--------------------------------------------------------------|
G|---------------------------3--5-------------------------------|
D|---5-5---5-5---5-5---5-5---3--5--5-5---5-5---5-5---5-5---3--4-|
A|---5-5---5-5---5-5---5-5---1--3--5-5---5-5---5-5---5-5---3--4-|
E|---3-3---3-3---3-3---3-3---------3-3---3-3---3-3---3-3---1--2-|

Interlude x2
E|-----------------------|
B|-----------------------|
G|--------3-5------------|
D|---5-5--3-5---5-5--3-4-|
A|---5-5--1-3---5-5--3-4-|
E|---3-3--------3-3--1-2-|

Chorus x11 slowly growing louder
E|-------------------------------------------|
B|-------------------------------------------|
G|-------------------------------------------|
D|-------------------1-3---------------------|
A|---3--3-3--3--3-3------3--3-3--3--3-3--1-2-|
E|-------------------------------------------|

Chorus x4 with heavy distortion
E|--------------------------------------------------------------|
B|--------------------------------------------------------------|
G|---------------------------3--5-------------------------------|
D|---5-5---5-5---5-5---5-5---3--5--5-5---5-5---5-5---5-5---3--4-|
A|---5-5---5-5---5-5---5-5---1--3--5-5---5-5---5-5---5-5---3--4-|
E|---3-3---3-3---3-3---3-3---------3-3---3-3---3-3---3-3---1--2-|

Ending x4
E|-14--11---------------------14--11--------------------14--11-----------------|
B|----------11-11-11-11-11--------------------------------------11-11-11-11-11-|
G|-------------------------------------14-14-14-14-14--------------------------|
D|-----------------------------------------------------------------------------|
A|-----------------------------------------------------------------------------|
E|-----------------------------------------------------------------------------|

Ending (continued)
E|--14--11-------------------|
B|---------------------------|
G|------------14-14-14-13-13-|
D|---------------------------|
A|---------------------------|
E|---------------------------|

Тональность:

Это должно быть в ТОП-листе! - Топ-лист композиций



Назад
Рекомендуем посмотреть другие песни исполнителя «Limp Bizkit»:

  • Комменты Fb ()
  • Комменты ВК



Добавить в Избранное Браузера
Сохранить здесь Очистить


x

0


+
-

+
-

-

Авторизация





Зарегистрироваться

M

Дата и время

  • 17:31:26
     

Социальные ссылки


Наши приложения

  • Muzbank App Play Market
  • Muzbank Amazon App