MUZBANK


МУЗЫКАЛЬНО-ИНФОРМАЦИОННЫЙ БАНК





LLimp Bizkit • My Way 110% (аккорды и текст - chords & lyrics)


390

Print

Видео «My Way 110% (Limp Bizkit)»

Видео клипы к песне подбираются автоматически сайтом youtube. Возможны некоторые несоответствия клипов песне.

↑ Спрятать рекламу ↑





Tuning: C#, F#, B, E, G#, C#

Intro
E|--------------------------------
B|----------------5---------------
G|---1-----------------------4---- 4X
D|--------------------------------
A|----------------3--------------- w/ slight dist. & delay
E|---0-----------------------3----

Verse a
Intro 4X

Verse b
E|-------2/5---5p4-----4--------------------3p0-
B|-----------------------------5----------------
G|---1------------------------------------4----- 3X
D|----------------------------------------------
A|-------------------------33-----3p0----------- w/ slight dist. chorus & delay
E|-0---0------------0------------------33-------

Chorus
heavy dist.
E|-4----4--4---4----4--4---4--4--5---5----5--5--|
B|----------------------------------------------|
G|-------------------------------4---4----4--4--|
D|-2----2--2---2----2--2---2--2-----------------|
A|-2----2--2---2----2--2---2--2--5---5----5--5--|
E|-0----0--0---0----0--0---0--0--3---3----3--3--|

E|--7----7--7---7---4--4----4--4---4----4-|
B|----------------------------------------|
G|--4----4--4---4-------------------------|
D|------------------2--2----2--2---2----2-|
A|--5----5--5---5---2--2----2--2---2----2-|
E|--3----3--3---3---0--0----0--0---0----0-|

E|--4--4---4--5---5----5--5---0----0--0----0--|
B|----------------------------0----0--0----0--|
G|------------4---4----4--4---4----4--4----4--|
D|--2--2---2------------------5----5--5----5--|
A|--2--2---2--5---5----5--5---5----5--5----5--|
E|--0--0---0--3---3----3--3---3----3--3----3--|

E|--4--4----4--4---4-----4--4---4--5---5----5-|
B|--------------------------------------------|
G|---------------------------------4---4----4-|
D|--2--2----2--2---2-----2--2---2-------------|
A|--2--2----2--2---2-----2--2---2--5---5----5-|
E|--0--0----0--0---0-----0--0---0--3---3----3-|

E|--5---5---7--7---7--4--4--4--4--4--4--4--4--4--5--5---5--5--5---0--|
B|----------------------------------------------------------------0--|
G|--4---4---4--4---4-----------------------------4--4---4--4--4---4--|let ring
D|--------------------2--2--2--2--2--2--2--2--2-------------------5--|
A|--5---5---5--5---5--2--2--2--2--2--2--2--2--2--5--5---5--5--5---5--|
E|--3---3---3--3---3--0--0--0--0--0--0--0--0--0--3--3---3--3--3---3--|

Intro 4X

Verse b 3X

Chorus 1X

Interlude A
heavy dist.
E|--------------------------------------------------
B|--------------------------------------------------
G|-------------------------------------------------- 2X
D|--------------------------5----5--5--X---------5--
A|--2-2---2-2---X---X-X-----5----5--5--X---------5--
E|--0-0---0-0---X---X-X--0--3po--3--3--X--0---0--3--

B
E|--------------------------stop here on 2nd time
B|---------------------------------|-----------------------
G|---------------------------------|-----------------------
D|---------------------------------|----------------------- 2X
A|--------------------------5----5--5--X---5------------5--
E|--2-2---2-2---X-X-X-X-----5----5--5--X---5------------5--
--0-0---0-0---X-X-X-X--0--3p0--3--3--X-0-3p0---0---0--3--

C chorus w/ delay
E|--------------------------------------------------|
B|--------------------------------------------------|
G|--------6--6--------------------9--9--------------|
D|-----4--------------7--7-----7--------------9--9--|
A|--2--------------5--------5--------------7--------|
E|--------------3-----------------------5-----------|

E|----------------------------------------
B|----------------------------------------
G|-------11--11--------------------14--14-
D|----9---------------12--12----12--------
A|-7---------------10--------10-----------
E|--------------8-------------------------

E|----------------
B|----------------
G|---------------- 2X
D|--------14--14--
A|-----12---------
E|--10------------

Verse 4
w/ chorus & delay
E|--4------5----7----4-------5----0--
B|--------------------------------0--
G|---------4----4------------4----4-- 2X
D|--2----------------2------------5--
A|--2------5----5----2-------5----5--
E|--0------3----3----0-------3----3--

Chorus 1X

Тональность:

Это должно быть в ТОП-листе! - Топ-лист композиций



Назад
Рекомендуем посмотреть другие песни исполнителя «Limp Bizkit»:

  • Комменты Fb ()
  • Комменты ВК



Добавить в Избранное Браузера
Сохранить здесь Очистить


x

0


+
-

+
-

-

Авторизация





Зарегистрироваться

M

Дата и время

  • 16:15:39
     

Социальные ссылки


Наши приложения

  • Muzbank App Play Market
  • Muzbank Amazon App