MUZBANK


МУЗЫКАЛЬНО-ИНФОРМАЦИОННЫЙ БАНК





LLimp Bizkit • Sanitarium (аккорды и текст - chords & lyrics)


556

Print

Видео «Sanitarium (Limp Bizkit)»

Видео клипы к песне подбираются автоматически сайтом youtube. Возможны некоторые несоответствия клипов песне.

↑ Спрятать рекламу ↑






Tuning C#, F#, B, E, G#, C#

Intro: 1x (Clean)
C#|---(12)-----3-2---(12)-----2-2⁄3--(12)----(12)----(12)----(12)-----|
G#|------(12)---0-0-----(12)----0⁄0-----(12)----(12)----(12)----(12)--|
E|---------------------------------------------------------------(12)-|
B|--------------------------------------------------------------------|
F#|-------------------------------------------------------------------|
C#|--0~~~~~~~~~~~~~-0~~~~~~~~~~~~~~-0~~~~~~-0~~~~~~-0~~~~~~-0---------|

Pre-Verse: 2x (Clean)
C#|------------------------------------------|
G#|------------------------------------------|
E|-------0~~~----0~~~----0~~~----------------|
B|------4~~-----5~~-----7~~-----0~~---0~-----|
F#|----2~~~~---3~~~~---5~~~~---4~~---2~~-2/4-|
C#|--0~~~~~~-0~~~~~~-0~~~~~~-5~~~~-3~~~~-3/5-|

Verse: 2x (Clean)
C#|--------------------------------------------------------------------------|
G#|--------------------------------------------------------------------------|
E|-------0~~~----0~~~----0~~~------------0~~~----0~~~----0~~~----------------|
B|------4~~-----5~~-----7~~-----0~~~~---4~~-----5~~-----7~~-----0~----0~-----|
F#|----2~~~~---3~~~~---5~~~~---4~~-4~~-2~~~~---3~~~~---5~~~~---4~~---2~~-2/4-|
C#|--0~~~~~~-0~~~~~~-0~~~~~~-5~~~~~~-0~~~~~~-0~~~~~~-0~~~~~~-5~~~~-3~~~~-3/5-|

Pre-Chorus: 1x (Distorted)
C#|-------------------------------------------------------------------|
G#|-------------------------------------------------------------------|
E|-----4~~-----5~~-----7~~--------------4~~-----5~~-----7~~-----------|
B|------4~~-----5~~-----7~~-7-7-7-7------4~~-----5~~-----7~~-7-7-7-7--|
F#|------2~~-----3~~-----5~~-7-7-7-7------2~~-----3~~-----5~~-7-7-7-7-|
C#|--0-0-----0-0-----0-0-----5-5-5-5--0-0-----0-0-----0-0-----5-5-5-5-|
. . . . . . . . . . . . . . . . . . . .

Fill: 1x “Rage Rage Rage Rage Rage” (Distorted)
C#|-------------|----|----|-|
G#|-------------|----|----|-|
E|------------V----V----V---|
B|-------------5----5----5--|
F#|-------------5----5----5-|
C#|-------------3----3----3-|

Chorus: 1x (Distorted)
C#|----------------------------------------------------------------------------|
G#|----------------------------------------------------------------------------|
E|----------5⁄4-4-5-4~~----------------------------5⁄4-4-5-4~~-----------------|
B|--2-5-4-2--5⁄4-4-5-4~~--5-5-5-4-4-4-5-5---2-5-4-2--5⁄4-4-5-4~~-5-5-5~-3-3-3~-|
F#|--2-5-4-2--3⁄2-2-3-2~~-5-5-5-4-4-4-5-5---2-5-4-2--3⁄2-2-3-2~~-5-5-5~-3-3-3~-|
C#|--0-3-2-0--------------3-3-3-2-2-2-3-3---0-3-2-0--------------3-3-3~-1-1-1~-|
. . . . . . . . . . . .

C#|--------------------------------------------------------------------|
G#|--------------------------------------------------------------------|
E|----------5⁄4-4-5-4~~-----------------------------5⁄4-4-5-4~~~~~~~---|
B|--2-5-4-2--5⁄4-4-5-4~~-5-5-5-4-4-4-5-5----2-5-4-2--5⁄4-4-5-4~~~~~~~--|
F#|--2-5-4-2--3⁄2-2-3-2~~-5-5-5-4-4-4-5-5----2-5-4-2--3⁄2-2-3-2~~~~~~~-|
C#|--0-3-2-0--------------3-3-3-2-2-2-3-3----0-3-2-0-------------------|
. . . . . . . .

Pre-Verse: 2x (Clean)
C#|------------------------------------------|
G#|------------------------------------------|
E|-------0~~~----0~~~----0~~~----------------|
B|------4~~-----5~~-----7~~-----0~~---0~-----|
F#|----2~~~~---3~~~~---5~~~~---4~~---2~~-2/4-|
C#|--0~~~~~~-0~~~~~~-0~~~~~~-5~~~~-3~~~~-3/5-|

Verse: 2x (Clean)
C#|--------------------------------------------------------------------------|
G#|--------------------------------------------------------------------------|
E|-------0~~~----0~~~----0~~~------------0~~~----0~~~----0~~~----------------|
B|------4~~-----5~~-----7~~-----0~~~~---4~~-----5~~-----7~~-----0~----0~-----|
F#|----2~~~~---3~~~~---5~~~~---4~~-4~~-2~~~~---3~~~~---5~~~~---4~~---2~~-2/4-|
C#|--0~~~~~~-0~~~~~~-0~~~~~~-5~~~~~~-0~~~~~~-0~~~~~~-0~~~~~~-5~~~~-3~~~~-3/5-|

Pre-Chorus: 1x (Distorted)
C#|-------------------------------------------------------------------|
G#|-------------------------------------------------------------------|
E|-----4~~-----5~~-----7~~--------------4~~-----5~~-----7~~-----------|
B|------4~~-----5~~-----7~~-7-7-7-7------4~~-----5~~-----7~~-7-7-7-7--|
F#|------2~~-----3~~-----5~~-7-7-7-7------2~~-----3~~-----5~~-7-7-7-7-|
C#|--0-0-----0-0-----0-0-----5-5-5-5--0-0-----0-0-----0-0-----5-5-5-5-|
. . . . . . . . . . . . . . . . . . . .

Fill: 1x “Hell Hell Hell Hell Hell” (Distorted)
C#|-------------|----|----|-|
G#|-------------|----|----|-|
E|------------V----V----V---|
B|-------------5----5----5--|
F#|-------------5----5----5-|
C#|-------------3----3----3-|

Chorus: 1x (Distorted)
C#|----------------------------------------------------------------------------|
G#|----------------------------------------------------------------------------|
E|----------5⁄4-4-5-4~~----------------------------5⁄4-4-5-4~~-----------------|
B|--2-5-4-2--5⁄4-4-5-4~~--5-5-5-4-4-4-5-5---2-5-4-2--5⁄4-4-5-4~~-5-5-5~-3-3-3~-|
F#|--2-5-4-2--3⁄2-2-3-2~~-5-5-5-4-4-4-5-5---2-5-4-2--3⁄2-2-3-2~~-5-5-5~-3-3-3~-|
C#|--0-3-2-0--------------3-3-3-2-2-2-3-3---0-3-2-0--------------3-3-3~-1-1-1~-|
. . . . . . . . . . . .

C#|--------------------------------------------------------------------|
G#|--------------------------------------------------------------------|
E|----------5⁄4-4-5-4~~-----------------------------5⁄4-4-5-4~~~~~~~---|
B|--2-5-4-2--5⁄4-4-5-4~~-5-5-5-4-4-4-5-5----2-5-4-2--5⁄4-4-5-4~~~~~~~--|
F#|--2-5-4-2--3⁄2-2-3-2~~-5-5-5-4-4-4-5-5----2-5-4-2--3⁄2-2-3-2~~~~~~~-|
C#|--0-3-2-0--------------3-3-3-2-2-2-3-3----0-3-2-0-------------------|
. . . . . . . .

Interlude: Repeat over and over (Distorted)
C#|--------------------------------------------------------------------|
G#|--------------------------------------------------------------------|
E|---------------------------------------------------------------------|
B|---------------------------------------------------------------------|
F#|--------------------------------------------------------------------|
C#|--0-0-0-0-0-0-0-0-0-0-0-0-0-0-0-0-0-0-0-0-0-0-0-0-0-0-0-0-0-0-0-0-0-|
. . . . . . . . . . . . . . . . . . . . . . . . . . . . . . . . .

Breakdown: 4x (Distorted)
C#|-------------------------------------------------------------|
G#|-------------------------------------------------------------|
E|--------------------------------------------------------------|
B|--7-8---7-----------------------7-8---7--7-8---7--------------|
F#|--7-8---7-----------------------7-8---7--7-8---7-------------|
C#|--5-6-0-5-0-0-0-0-0-0-0-0-0-0-0-5-6-0-5--5-6-0-5-0-0-0-0-0-0-|
. . . . . . . . . . . . . . . . .

Bridge 1: 3x (Distorted)
C#|-------------------------------------------------------------------------|
G#|-------------------------------------------------------------------------|
E|-------------------------7~~~~~~-------------------------5~~--------4~~---|
B|---------2~~~~~~----------7~~~~~~---------3~~~~~~---------5~~--------4~~--|
F#|---------2~~~~~~----------5~~~~~~---------3~~~~~~---------3~~--------2~~-|
C#|--0-0--0-0~~~~~~--0-0--0-----------0-0--0-1~~~~~~--0-0--0-----0-0--0-----|
. . . . . . . . . . . . . . .

Bridge 2: 1x (Distorted)
C#|-------------------------------------------------------|
G#|-------------------------------------------------------|
E|----------------7~~~~~~-----------------------5~~~~~~---|
B|--2~~~~~~--------7~~~~~~--------3~~~~~~--------5~~~~~~--|
F#|--2~~~~~~--------5~~~~~~--------3~~~~~~--------3~~~~~~-|
C#|--0~~~~~~-----------------------1~~~~~~----------------|

Chorus: 1x (Distorted)
C#|----------------------------------------------------------------------------|
G#|----------------------------------------------------------------------------|
E|----------5⁄4-4-5-4~~----------------------------5⁄4-4-5-4~~-----------------|
B|--2-5-4-2--5⁄4-4-5-4~~--5-5-5-4-4-4-5-5---2-5-4-2--5⁄4-4-5-4~~-5-5-5~-3-3-3~-|
F#|--2-5-4-2--3⁄2-2-3-2~~-5-5-5-4-4-4-5-5---2-5-4-2--3⁄2-2-3-2~~-5-5-5~-3-3-3~-|
C#|--0-3-2-0--------------3-3-3-2-2-2-3-3---0-3-2-0--------------3-3-3~-1-1-1~-|
. . . . . . . . . . . .

C#|--------------------------------------------------------------------|
G#|--------------------------------------------------------------------|
E|----------5⁄4-4-5-4~~-----------------------------5⁄4-4-5-4~~~~~~~---|
B|--2-5-4-2--5⁄4-4-5-4~~-5-5-5-4-4-4-5-5----2-5-4-2--5⁄4-4-5-4~~~~~~~--|
F#|--2-5-4-2--3⁄2-2-3-2~~-5-5-5-4-4-4-5-5----2-5-4-2--3⁄2-2-3-2~~~~~~~-|
C#|--0-3-2-0--------------3-3-3-2-2-2-3-3----0-3-2-0-------------------|
. . . . . . . .

Pre-Verse: 1x (Clean)
C#|------------------------------------------|
G#|------------------------------------------|
E|-------0~~~----0~~~----0~~~----------------|
B|------4~~-----5~~-----7~~-----0~~---0~-----|
F#|----2~~~~---3~~~~---5~~~~---4~~---2~~-2/4-|
C#|--0~~~~~~-0~~~~~~-0~~~~~~-5~~~~-3~~~~-3/5-|

Ending Chord: 1x (Clean)
C#|--0~~~~~~~~~~~~~~~~~~~-|
G#|--0~~~~~~~~~~~~~~~~~~~-|
E|-0~~~~~~~~~~~~~~~~~~~---|
B|--2~~~~~~~~~~~~~~~~~~~--|
F#|--2~~~~~~~~~~~~~~~~~~~-|
C#|--0~~~~~~~~~~~~~~~~~~~-|

Тональность:

Это должно быть в ТОП-листе! - Топ-лист композиций



Назад
Рекомендуем посмотреть другие песни исполнителя «Limp Bizkit»:

  • Комменты Fb ()
  • Комменты ВК



Добавить в Избранное Браузера
Сохранить здесь Очистить


x

0


+
-

+
-

-

Авторизация





Зарегистрироваться

M

Дата и время

  • 15:00:16
     

Социальные ссылки


Наши приложения

  • Muzbank App Play Market
  • Muzbank Amazon App