MUZBANK


МУЗЫКАЛЬНО-ИНФОРМАЦИОННЫЙ БАНК





LLimp Bizkit • Sanitarium (аккорды и текст - chords & lyrics)


330

Print

Видео «Sanitarium (Limp Bizkit)»

Видео клипы к песне подбираются автоматически сайтом youtube. Возможны некоторые несоответствия клипов песне.

↑ Спрятать рекламу ↑






 


-------------------------------------------------------------------------------
			     sanitarium- limp bizkit
-------------------------------------------------------------------------------
Tabbed by:cuonting on me
Email:titofotito86@hotmail.com

Tuning:C# F A# E G# c#
=HARMONIC
intro
|---------------3---2-------------2-2h3-|-------------  ---|
|-----------------0---------------0-0---|-------------  ---|
|-----------------------------------------------|-----------------x3---|
|-----------------------------------------------|-----------------  -------|
|-----------------------------------------------|-----------------  -------|
|-0-------------------------0-------------------|--0--------------  -0-----|

|-------------------------------------------------------|
|-------------------------------------------------------|
|-------0-------0-------0-------------------------------|
|-----4-------5-------7-------0-------------------------|x2
|---2-------3-------5-------4--------2------------------|
|-0-------0-------0-------5------5-3---3-5--------------|
verse 1
|-------------------------------------------------------------||
|-------------------------------------------------------------||
|------0-------0-------0--------------------------------------||
|----4-------5-------7--------0-------------------------------||
|--2-------3-------5--------4---4-----------------------------||
|0-------0-------0--------5-----------------------------------||
verse 2                                                        |X2
|-------------------------------------------------------------||
|-------------------------------------------------------------||
|------0-------0-------0--------------------------------------||
|----4-------5-------7-------0--------------------------------||
|--2-------3-------5-------4-------2--------------------------||
|0-------0-------0-------5-----5-3---3-5----------------------||
pre-chorus
|--------------------------|----------------------------------------|
|--------------------------|----------------------------------------|
|---44----55----77---------|----44----55----77----------------------|
|---44----55----77--7777---|----44----55----77-7777--5-5-5----------|
|---22----33----55--7777---|----22----33----55-7777--5-5-5----------|
|00----00----00-----5555---|-00----00----00----5555--3-3-3----------|
chorus
|----------------------------------------------------------------|
|----------------------------------------------------------------|
|--------5/4-5/4----------------------5/4-5/4--------------------|
|---5/4 

Тональность:

Это должно быть в ТОП-листе! - Топ-лист композиций



Назад
Рекомендуем посмотреть другие песни исполнителя «Limp Bizkit»:

  • Комменты Fb ()
  • Комменты ВК



Добавить в Избранное Браузера
Сохранить здесь Очистить


x

0


+
-

+
-

-

Авторизация





Зарегистрироваться

M

Дата и время

  • 10:44:53
     

Социальные ссылки


Наши приложения

  • Muzbank App Play Market
  • Muzbank Amazon App