MUZBANK


МУЗЫКАЛЬНО-ИНФОРМАЦИОННЫЙ БАНК





LLimp Bizkit • Stalemate (аккорды и текст - chords & lyrics)


514

Print

Видео «Stalemate (Limp Bizkit)»

Видео клипы к песне подбираются автоматически сайтом youtube. Возможны некоторые несоответствия клипов песне.

↑ Спрятать рекламу ↑






1-й вариант(обычная настройка-e,B,G,D,A,E. Самый сложный
вариант, так как, чтобы хорошо звучало приходится расстягивать
пальцы).

Intro

G|--------------6----4h6-----------------6-------------|
D|---------4----------------------4----------------4h5-|
A|-----4---------------------4-------------------------|
E|-2---2-----2----2------2---2--------2-------2--------|

2-й вариант заключается в НАТЯЖЕНИИ 6-й струны.Эта струна
настраивается в унисон с 9-м ладом 5-й или 4-м ладом 4-й струны.
Главное ПЕРЕТЯГИВАЯ 6-ю её не порвать.

Intro

 G|---------------6------4h6---------------6---------|
 D|---------4-----------------------4------------4h5-|
 A|-----4-----------------------4--------------------|
F#|-0---0------0-----0------0---0------0------0------|

3-й вариант,для тех,кто боится порвать 6-ю струну.Эта струна
настраивается в унисон с 4-м ладом 5-й или 11-м ладом 4-й
струны(т.е.струну в отличии от 2-ого варианта нужно
РАССТРАИВАТЬ).В игре самый простой способ после 2-ого варианта.

Intro

 G|-------------------6-------4h6-------------------6----------|
 D|------------4----------------------------4--------------4h5-|
 A|-------4-----------------------------4----------------------|
C#|---5---5-------5------5----------5---5-------5------5-------|

4-й вариант

Intro

 E|---------------9---------------------------9----------------|
 B|---------------------12-/--14-------------------------------|
F#|------7--12p0----------------------7-12p0---------12--/--13-|
F#|-12--12----------12-----------12--12----------12------------|

Тональность:

Это должно быть в ТОП-листе! - Топ-лист композиций



Назад
Рекомендуем посмотреть другие песни исполнителя «Limp Bizkit»:

  • Комменты Fb ()
  • Комменты ВК



Добавить в Избранное Браузера
Сохранить здесь Очистить


x

0


+
-

+
-

-

Авторизация





Зарегистрироваться

M

Дата и время

  • 02:13:55
     

Социальные ссылки


Наши приложения

  • Muzbank App Play Market
  • Muzbank Amazon App